Song name
# A B C D E F G H I J K L M N O P Q R S T U V W X Y Z

Green Day - Restless Heart Syndrome chords

Highlighted       Show chord diagrams
Band: Green Day
Song: Restless Heart Syndrome
Album: 21st Century Breakdown
Track: 13

Hi everyone! So this is an ACOUSTIC VERSION of the song. 
It’s not the album version. I made an acoustic version so 
you can play it around a fire or just for fun. So please 
don’t base your opinion on the fact that it’s not the 
same as the album, but as a “one-man playing” version. 
Thanks and enjoy playing this awesome GD song!!

You MUST USE A CAPO AT 3RD FRET, but the chords that 
are written here are standard...

Gm ======== 022000
Gm/F ====== x54000
Em7b5 ===== x42000
Ebmaj7 ==== x32000
Em7b13 ==== x42200
Cm ======== x02210
Cm/Bb ===== 3x2210
Am7b5 ===== 2x2210
Abmaj7 ==== 1x2210
D7 ======== x21202
D ========= x24442
F ========= xx0232


Intro:

  Gm       C         F        Bb
|------------------|-----5------------|
|-----0------------|-3----------------|
|-0--------2---2---|---2---2--0---0---|
|---2---2----2---2-|-0----------0---0-|
|----------0-------|------------------|
|-0----------------|----------3-------|

  Eb       Ab        D
|-----3------------|--------|
|-1------------1---|-4------|
|---0---0--2-------|-4------|
|------------3---3-|-4------|
|-3----------------|-2------|
|----------1-------|--------|

Verse 1:

Gm         Gm/F          Em7b5      Ebmaj7
I’ve got a really bad disease

Gm          Gm/F          Em7b13          Ebmaj7
It's got me begging on my hands and knees 

   Gm      Gm/F      Em7b5  Ebmaj7
So take me to       emergency 

Gm                Gm/F           Em7b13   Ebmaj7
'Cause something seems to be missing 



Gm       Gm/F            Em7b5      Ebmaj7
Somebody take the pain away 

Gm               Gm/F         Em7b13       Ebmaj7
  It's like an ulcer bleeding in my brain 

   Gm      Gm/F   Em7b5  Ebmaj7
So send me to the pharmacy 

Gm         Gm/F         Em7b13      Ebmaj7
  So I can lose my memory 



Pre-Chorus:

Cm       Cm/Bb
    I'm elated 

Am7b5    Abmaj7
    Medicated 

Cm             Cm/Bb           Am7b5  Abmaj7 
  Lord knows I tried to find a way           

         D7 (or D)
  to run away. 



Verse 2:

Gm             Gm/F          Em7b5      Ebmaj7
  I think they found another cure 

Gm              Gm/F            Em7b13 Ebmaj7
  For broken hearts and feeling insecure 

      Gm    Gm/F        Em7b5  Ebmaj7
You'd be surprised what I endure 

Gm                 Gm/F        Em7b13     Ebmaj7
  What makes you feel so self-assured? 



Gm           Gm/F            Em7b5  Ebmaj7
   I need to find a place to hide
 
Gm              Gm/F            Em7b13      Ebmaj7
   You never know what could be waiting outside 

    Gm    Gm/F     Em7b5       Ebmaj7
The accidents that you could find 

Gm                  Gm/F     Em7b13  Ebmaj7
  It's like some kind of suicide 


Pre-Chorus:

Cm         Cm/Bb  Am7b5      Abmaj7
   So what ails you is what impales you 

Cm             Cm/Bb          Am7b5 Abmaj7         D7 (or D)
   I feel like I've been crucified      to be satisfied 


Chorus:

Gm             Gm/F
  I'm a victim     of my symptom 

Em7b5        Cm           F       D
     I am my own worst enemy 

Gm               Gm/F
  You're a victim    of your symptom 

Em7b5             Cm           F     
     You are your own worst enemy 

D
Know your enemy 


Solo:

Gm   Gm/F   Em7b5   Ebmaj7
Gm   Gm/F   Em7b13  Ebmaj7  
Gm   Gm/F   Em7b5   Ebmaj7
Gm   Gm/F   Em7b13  Ebmaj7  

Or you can play the “real” solo instead of chords

 played fast (tremolo picking) 
|-------------------|-----------------------------|
|-5--8-5-7---8-5----|-8-5-7---8-10---8-7-8---7-3--|
|-------------------|-----------------------------|
|-------------------|-----------------------------|
|-------------------|-----------------------------|
|-------------------|-----------------------------|

(bend gradually while picking fast to hit the right note) 
|-------------------|------------------------|
|-5--8-5-7---8-5----|-8-5-7---8-10-11b12-----|
|-------------------|------------------------|
|-------------------|------------------------|
|-------------------|------------------------|
|-------------------|------------------------|


Pre-Chorus:

Gm
    I'm elated 

Gm/F
    Medicated 

Em7b5        Cm            F     D
     I am my own worst enemy 

Gm
    So what ails you 

Gm/F
    Is what impales you 

Em7b5             Cm            F     D
     You are your own worst enemy 



Chorus :

Gm               Gm/F
  You're a victim    of the system 

Em7b5             Cm            F     D
     You are your own worst enemy 

Gm               Gm/F
  You're a victim    of the system 

Em7b5             Cm            F     D
     You are your own worst enemy


Outro:


  Gm
|-----------------|------------------|
|-----------------|------------------|
|---------9-9-9-9-|---------9-9-9-9--|
|---------x-x-x-x-|---------x-x-x-x--|
|-x-x-x-x-7-7-7-7-|-x-x-x-x-7-7-7-7--|
|-0-0-0-0---------|-0-0-0-0----------|




  Eb
|------------------|-------------------|
|------------------|-------------------|
|----------5-5-5-5-|-----5-------5/4---|    (x2)
|-x-x-x-x--x-x-x-x-|-x-x-x---x-x-x-----|
|-3-3-3-3----------|-3-3-3---3-3-3/2---|
|------------------|-------------------|

  Gm
|-----------------|------------------|
|---------8-8-8-8-|---------8-8-8-8--|
|---------9-9-9-9-|---------9-9-9-9--|
|---------x-x-x-x-|---------x-x-x-x--|
|-x-x-x-x-7-7-7-7-|-x-x-x-x-7-7-7-7--|
|-0-0-0-0---------|-0-0-0-0----------|

  Eb
|------------------|-------------------|
|----------5-5-5-5-|-----5-------5/4---|
|----------5-5-5-5-|-----5-------5/4---|    (x2)
|-x-x-x-x—-5-5-5-5-|-x-x-5---x-x-5/4---|
|-3-3-3-3----------|-3-3-----3-3-------|
|------------------|-------------------|

|----------------|-0----|
|----------------|-0----|
|----------------|-0----|
|-2---2---2---2--|-2----|
|-2---2---2---2--|-2----|
|-0---0---0---0--|-0----|

Tabber: Maxime Legault
Tap to rate this tab
# A B C D E F G H I J K L M N O P Q R S T U V W X Y Z