Song name
# A B C D E F G H I J K L M N O P Q R S T U V W X Y Z

Green Day - Longview tab

Green Day 
Longview
Written By Billie Joe Armstrong
Tabbed By steblack6 
any questions email me at stephen.blacklock@talk21.com


 h = hammer-on    p = pull-off   b = bend   / = slide up   
\ = slide down 5   = power chord   () = harmonic 


G|-------------------------------------9-7-6-7-------------------|
D|------9-7-6-------7-6----4----9-7-6----------------------------|
A|-0h7---------7p5-------5---7-----------------------------------|
E|---------------------------------------------------------------|
 

Chorus  (x4) 
e|---------------------------------------------------------------|
B|---------------------------------------------------------------|
G|-777777777777------------9-------------------------------------|
D|-777777777777--9----7----9-------------------------------------|
A|-555555555555--9----7----7-------------------------------------|
E|---------------7----5------------------------------------------|

outro
e|----------------------(12)----------------(12)-----------------|
B|-9h10-10-7---9h10--12------------9h10--12----------------------|
G|-9----9--7---9-----------------9-------------------------------|
D|---------------------------------------------------------------|
A|---------------------------------------------------------------|
E|---------------------------------------------------------------|
Tap to rate this tab
# A B C D E F G H I J K L M N O P Q R S T U V W X Y Z