Song name
# A B C D E F G H I J K L M N O P Q R S T U V W X Y Z

Green Day - Minority tab

This song is very easy to play
Tabbed by Dexter

The Beggining is very easy, but needs practice

INTRO/ENDING

              C
E---------------------------------
B------------2--------------------
G-----0---------0-----------------
D--------2------------------------
A---3-----------------------------
E---------------------------------

              G
E---------------------------------
B------------3--------------------
G------0--------0-----------------
D--------0------------------------
A---------------------------------
E---3-----------------------------

              F
E-------------0-------------------
B------1----------1---------------
G---------0-----------------------
D---3-----------------------------
A---------------------------------
E---------------------------------

              E
E-------------0-------------------
B------1----------1---------------
G---------0-----------------------
D--0h2----------------------------
A---------------------------------
E---------------------------------

              C
E---------------------------------
B------------2--------------------
G-------0-------0-----------------
D--0h2-----2----------------------
A---------------------------------
E---------------------------------


              G
E---------------------------------
B------------3--------------------
G------0--------0-----------------
D--------0------------------------
A---------------------------------
E---3-----------------------------

               F/E
E---------------------------------
B---1-----------------------------
G---0------------0----------------
D---3---2--0-----2----------------
A----------------3----------------
E---------------------------------

====================
Then...

Verse(1): (Eletric and Acoustic Guitar)
E------------------------------------------------------------------
B------------------------------------------------------------------
G--5-5-5-5-5-5-----------------------------------------------------
D--5-5-5-5-5-5--3-3-3-3-3-3--1-1-1-1-1-1--3-3-3-3-3-3--------------
A--3-3-3-3-3-3--3-3-3-3-3-3--1-1-1-1-1-1--3-3-3-3-3-3--------------
E---------------1-1-1-1-1-1--3-3-3-3-3-3--1-1-1-1-1-1--------------

I WANNA BE THE MINORITY
I DON'T NEED YOUR AUTHORITY
DOWN WITH THE MORAL MAJORITY CAUSE
I WANNA BE THE MINORITY
====================
Verse(2): (Only acoustic Guitar)

 C (2x)    G(2x)  F(2x)  E(2x)  C(2x)
I PLEDGE ALLEGANCE TO THE UNDERWORLD
 C(2x)        G(2x)        F(2x)   F(2x)   G(2x)
ONE NATION UNDER DOG THERE OF WICH I STAND, ALONE
 C(2x)      G(2x)      F(2x)  E(2x)     C(2x)
A FACE IN THE CROWD, UNSUNG AGAINST THE MOLD
 C(2x)      F(2x)      G(2x)          C(2x)     
WITHOUT A DOUBT, SINGLED OUT, THE ONLY WAY I KNOW CAUSE

Then come back to VERSE 1
====================
Verse(3): (Eletric and Acoustic Guitar)
------------------------------------------------------------------
------------------------------------------------------------------
------------------------------------------------------------------
-7-7-7-7-7-7-7--9-9--10-10-10-------------------------------------
-7-7-7-7-7-7-7--7-7--8--8--8--------------------------------------
-5-5-5-5-5-5-5----------------------------------------------------

------------------------------------------------------------------
------------------------------------------------------------------
------------------------------------------------------------------
-7-7-7-7-7-7-7--2--3-3-3-3--5-5-5-5-------------------------------
-7-7-7-7-7-7-7--2--3-3-3-3--5-5-5-5-------------------------------
-5-5-5-5-5-5-5--0--1-1-1-1--3-3-3-3-------------------------------

STEPPED OUT OF THE LINE
LIKE A SHEEP RUNS FROM THE HERD
MARCHIN' OUT OF TIME

------------------------------------------------------------------
------------------------------------------------------------------
------------------------------------------------------------------
-7-7-7-7-7-7-7----3-----5-5-x-x-x--5-5-x-x-x---5-5-x-x-x--5----5--
-7-7-7-7-7-7-7----3-----5-5-x-x-x--5-5-x-x-x---5-5-x-x-x--5----2--
-5-5-5-5-5-5-5----1-----3-3-x-x-x--3-3-x-x-x---3-3-x-x-x--3-------

TO MY OWN BEAT NOOOOW
THE ONLY WAY I KNOW

(VERSE 2)

(VERSE 1)

(VERSE 3)

(VERSE 2)

(VERSE 1)

Ending



********************THIS SONG WAS TABBED BY DEXTER******************
Any doubts, suggestions, etc, contact me. xxxdexterxxx@brasnet.org
Tap to rate this tab
# A B C D E F G H I J K L M N O P Q R S T U V W X Y Z