Song name
# A B C D E F G H I J K L M N O P Q R S T U V W X Y Z

Green Day - When I Come Around tab

**** TABS BY HOSS ****

### Greenday - When I Come Around ###

Intro:

E||--------------------|----------------------------|-----------------------|
B||--------------------|----------------------------|-----------------------|
G||----------------3-1-|---------------6--6--6--6-6-|--8--8-----------------|
D||----------------3-1-|--4--4--4--4-4-6--6--6--6-6-|--8--8----9--------8-6-|
A||----------------1---|--4--4--4--4-4-4--4--4--4-4-|--6--6----9--------8-6-|
E||------------------4-|--2--2--2--2-2--------------|----------7--------6-4-|

||---------------------------|-----------------------|
||---------------------------|-----------------------|
||--------------6--6--6--6-6-|--8--8-----------------|
||--4----4--4-4-6--6--6--6-6-|--8--8----9--------8-6-|
||--4----4--4-4-4--4--4--4-4-|--6--6----9--------8-6-|
||--2----2--2-2--------------|----------7--------6-4-|

Verse:


E||----------------------------|------------------------|
B||----------------------------|------------------------|
G||---------------6--6--6--6-6-|--8--8------------------|
D||--4--4--4--4-4-6--6--6--6-6-|--8--8----9------9--8-6-|
A||--4--4--4--4-4-4--4--4--4-4-|--6--6----9------9--8-6-|
E||--2--2--2--2-2--------------|----------7------7--6-4-|


Chorus:

G#5   B5   G#5   B5  G#5


that's all pretty easy :)

question or corrections to suckinhoss@web.de
Tap to rate this tab
 
# A B C D E F G H I J K L M N O P Q R S T U V W X Y Z