Song name
# A B C D E F G H I J K L M N O P Q R S T U V W X Y Z

Green Day - Pulling Teeth tab

Tuning:   1/2 Step Down - (Eb Ab Db Gb Bb eb)



Key : / or \ - Slide up or down
      Harm.. - Harmonics




Intro

eb|---------------------------------------------------------------------------|
Bb|---------------------------------------------------------------------------|
Gb|--4-4-4--4-----------------------------------------------------------------|
Db|--4-4-4--4-----------------------------------------------------------------|
Ab|--2-2-2--2-----------------------------------------------------------------|
Eb|---------------------------------------------------------------------------|


eb|---------------------------------------------------------------------------|
Bb|-----4-------4-------2-------5---------------------------------------------|
Gb|-4-4-4-4-4-4-4-4-2-2-2-2-2-2-6-2-------------------------------------------|
Db|-4-4-4-4-4-4-4-4-2-2-2-2-2-2-6-2----------(x3)-----------------------------|
Ab|-2-2-2-2-2-2-2-2-0-0-0-0-0-0-4-0-------------------------------------------|
Eb|---------------------------------------------------------------------------|


eb|---------------------------------------------------------------------------|
Bb|-----4-------4---4-4-4-4-4-------------------------------------------------|
Gb|-4-4-4-4-4-4-4-4-4-4-4-4-4-------------------------------------------------|
Db|-4-4-4-4-4-4-4-4-4-4-4-4-4-------------------------------------------------|
Ab|-2-2-2-2-2-2-2-2-2-2-2-2-2-------------------------------------------------|
Eb|---------------------------------------------------------------------------|





Verse 1  x2

eb|---------------------------------------------------------------------------|
Bb|--------------2--2-2-2-2-0-0-0---------------4--4-4-4-4-4-4-4--------------|
Gb|-1--1--1-1-1--2--2-2-2-2-2-2-2--1--1--1-1-1--4--4-4-4-4-4-4-4--------------|
Db|-2--2--2-2-2--2--2-2-2-2-2-2-2--2--2--2-2-2--4--4-4-4-4-4-4-4--------------|
Ab|-2--2--2-2-2--0--0-0-0-0-0-0-0--2--2--2-2-2--2--2-2-2-2-2-2-2--------------|
Eb|-0--0--0-0-0--------------------0--0--0-0-0--------------------------------|


eb|---------------------------------------------------------------------------|
Bb|--------------2--2-2-2-2-0-0-0--------4-4-4--------------------------------|
Gb|-1--1--1-1-1--2--2-2-2-2-2-2-2--1--1--4-4-4--1--1-1-1-1-1-1-1--------------|
Db|-2--2--2-2-2--2--2-2-2-2-2-2-2--2--2--4-4-4--2--2-2-2-2-2-2-2--------------|
Ab|-2--2--2-2-2--0--0-0-0-0-0-0-0--2--2--2-2-2--2--2-2-2-2-2-2-2--------------|
Eb|-0--0--0-0-0--------------------0--0---------0--0-0-0-0-0-0-0--------------|





Chorus

eb|---------------------------------------------------------------------------|
Bb|-----5-5-----5-5-----5-5-----5-5-------------------------------------------|
Gb|-6-6-6-6-6-6-6-6-6-6-6-6-6-6-6-6-1--1--1-1-1-1--1-1-1-1-1-1-1--------------|
Db|-6-6-6-6-6-6-6-6-6-6-6-6-6-6-6-6-2--2--2-2-2-2--2-2-2-2-2-2-2--------------|
Ab|-4-4-4-4-4-4-4-4-4-4-4-4-4-4-4-4-2--2--2-2-2-2--2-2-2-2-2-2-2--------------|
Eb|---------------------------------0--0--0-0-0-0--0-0-0-0-0-0-0--------------|


eb|---------------------------------------------------------------------------|
Bb|-----5-5-----5-5-----5-5-----5-5-4-4-4-4-4-4-4-4-4-4-4-4-------------------|
Gb|-6-6-6-6-6-6-6-6-6-6-6-6-6-6-6-6-4-4-4-4-4-4-4-4-4-4-4-4-------------------|
Db|-6-6-6-6-6-6-6-6-6-6-6-6-6-6-6-6-4-4-4-4-4-4-4-4-4-4-4-4-------------------|
Ab|-4-4-4-4-4-4-4-4-4-4-4-4-4-4-4-4-2-2-2-2-2-2-2-2-2-2-2-2-------------------|
Eb|---------------------------------------------------------------------------|





Verse 2

eb|---------------------------------------------------------------------------|
Bb|--------------2--2-2-2-2-0-0-0---------------4--4-4-4-4-4-4-4--------------|
Gb|-1--1--1-1-1--2--2-2-2-2-2-2-2--1--1--1-1-1--4--4-4-4-4-4-4-4--------------|
Db|-2--2--2-2-2--2--2-2-2-2-2-2-2--2--2--2-2-2--4--4-4-4-4-4-4-4--------------|
Ab|-2--2--2-2-2--0--0-0-0-0-0-0-0--2--2--2-2-2--2--2-2-2-2-2-2-2--------------|
Eb|-0--0--0-0-0--------------------0--0--0-0-0--------------------------------|


eb|---------------------------------------------------------------------------|
Bb|--------------2--2-2-2-2-0-0-0--------4-4-4--------------------------------|
Gb|-1--1--1-1-1--2--2-2-2-2-2-2-2--1--1--4-4-4--1--1-1-1-1-1-1-1--------------|
Db|-2--2--2-2-2--2--2-2-2-2-2-2-2--2--2--4-4-4--2--2-2-2-2-2-2-2--------------|
Ab|-2--2--2-2-2--0--0-0-0-0-0-0-0--2--2--2-2-2--2--2-2-2-2-2-2-2--------------|
Eb|-0--0--0-0-0--------------------0--0---------0--0-0-0-0-0-0-0--------------|





Solo

(Gtr 1)

eb|-0--0----0--0--0-0-0-0-0-0-0-0--0----0-------------------------------------|
Bb|-2--0--0-0--2--2-2-2-2-0-0-0-2--0--0-0--4--5--7--5-4-----------------------|
Gb|-------1---------------------------1----4--4--4--4-4-----------------------|
Db|---------------------------------------------------------------------------|
Ab|---------------------------------------------------------------------------|
Eb|---------------------------------------------------------------------------|

						       Harm...........
eb|-0-0-0-0-0--0-0--0--0--0--0--0-0-0--0----0-0--0-0---0-----12-12--12--------|
Bb|-0-0-9-9-9-10-9-10-12-12-10-10-9-9-10--0---9\-7-7-0-5-0-12-----------------|
Gb|---------------------------------------------------------------------------|
Db|---------------------------------------------------------------------------|
Ab|---------------------------------------------------------------------------|
Eb|---------------------------------------------------------------------------|


(Gtr 2)

eb|---------------------------------------------------------------------------|
Bb|--------------2--2-2-2-2-0-0-0---------------4--4-4-4-4-4-4-4--------------|
Gb|-1--1--1-1-1--2--2-2-2-2-2-2-2--1--1--1-1-1--4--4-4-4-4-4-4-4--------------|
Db|-2--2--2-2-2--2--2-2-2-2-2-2-2--2--2--2-2-2--4--4-4-4-4-4-4-4--------------|
Ab|-2--2--2-2-2--0--0-0-0-0-0-0-0--2--2--2-2-2--2--2-2-2-2-2-2-2--------------|
Eb|-0--0--0-0-0--------------------0--0--0-0-0--------------------------------|


eb|---------------------------------------------------------------------------|
Bb|--------------2--2-2-2-2-0-0-0--------4-4-4--------------------------------|
Gb|-1--1--1-1-1--2--2-2-2-2-2-2-2--1--1--4-4-4--1--1-1-1-1-1-1-1--------------|
Db|-2--2--2-2-2--2--2-2-2-2-2-2-2--2--2--4-4-4--2--2-2-2-2-2-2-2--------------|
Ab|-2--2--2-2-2--0--0-0-0-0-0-0-0--2--2--2-2-2--2--2-2-2-2-2-2-2--------------|
Eb|-0--0--0-0-0--------------------0--0---------0--0-0-0-0-0-0-0--------------|





Chorus / Interlude

eb|---------------------------------------------------------------------------|
Bb|-----5-5-----5-5-----5-5-----5-5-------------------------------------------|
Gb|-6-6-6-6-6-6-6-6-6-6-6-6-6-6-6-6-1--1--1-1-1-1--1-1-1-1-1-1-1--------------|
Db|-6-6-6-6-6-6-6-6-6-6-6-6-6-6-6-6-2--2--2-2-2-2--2-2-2-2-2-2-2--------------|
Ab|-4-4-4-4-4-4-4-4-4-4-4-4-4-4-4-4-2--2--2-2-2-2--2-2-2-2-2-2-2--------------|
Eb|---------------------------------0--0--0-0-0-0--0-0-0-0-0-0-0--------------|


eb|---------------------------------------------------------------------------|
Bb|-----5-5-----5-5-----5-5-----5-5-----4-------4-------2-------5-------------|
Gb|-6-6-6-6-6-6-6-6-6-6-6-6-6-6-6-6-4-4-4-4-4-4-4-4-2-2-2-2-2-2-6-2-----------|
Db|-6-6-6-6-6-6-6-6-6-6-6-6-6-6-6-6-4-4-4-4-4-4-4-4-2-2-2-2-2-2-6-2-----------|
Ab|-4-4-4-4-4-4-4-4-4-4-4-4-4-4-4-4-2-2-2-2-2-2-2-2-0-0-0-0-0-0-4-0-----------|
Eb|---------------------------------------------------------------------------|


eb|---------------------------------------------------------------------------|
Bb|-----4-------4-------2-------5---------------------------------------------|
Gb|-4-4-4-4-4-4-4-4-2-2-2-2-2-2-6-2-------------------------------------------|
Db|-4-4-4-4-4-4-4-4-2-2-2-2-2-2-6-2----------(x4)-----------------------------|
Ab|-2-2-2-2-2-2-2-2-0-0-0-0-0-0-4-0-------------------------------------------|
Eb|---------------------------------------------------------------------------|


eb|---------------------------------------------------------------------------|
Bb|-----4-------4---4-4-4-4-4-------------------------------------------------|
Gb|-4-4-4-4-4-4-4-4-4-4-4-4-4-------------------------------------------------|
Db|-4-4-4-4-4-4-4-4-4-4-4-4-4-------------------------------------------------|
Ab|-2-2-2-2-2-2-2-2-2-2-2-2-2-------------------------------------------------|
Eb|---------------------------------------------------------------------------|





Verse 3

eb|---------------------------------------------------------------------------|
Bb|--------------2--2-2-2-2-0-0-0---------------4--4-4-4-4-4-4-4--------------|
Gb|-1--1--1-1-1--2--2-2-2-2-2-2-2--1--1--1-1-1--4--4-4-4-4-4-4-4--------------|
Db|-2--2--2-2-2--2--2-2-2-2-2-2-2--2--2--2-2-2--4--4-4-4-4-4-4-4--------------|
Ab|-2--2--2-2-2--0--0-0-0-0-0-0-0--2--2--2-2-2--2--2-2-2-2-2-2-2--------------|
Eb|-0--0--0-0-0--------------------0--0--0-0-0--------------------------------|


eb|---------------------------------------------------------------------------|
Bb|--------------2--2-2-2-2-0-0-0---------------------------------------------|
Gb|-1--1--1-1-1--2--2-2-2-2-2-2-2-----4--2--4---------------------------------|
Db|-2--2--2-2-2--2--2-2-2-2-2-2-2--2--4--2--4--2------------------------------|
Ab|-2--2--2-2-2--0--0-0-0-0-0-0-0--2--2--0--2--2------------------------------|
Eb|-0--0--0-0-0--------------------0-----------0------------------------------|





Or you can play the whole chords:


eb|---0------0------2------4--------------------------------------------------|
Bb|---0------2------4------5--------------------------------------------------|
Gb|---1------2------4------6--------------------------------------------------|
Db|---2------2------4------6--------------------------------------------------|
Ab|---2------0------2------4--------------------------------------------------|
Eb|---0------0------2------4--------------------------------------------------|
Tap to rate this tab
# A B C D E F G H I J K L M N O P Q R S T U V W X Y Z