Song name
# A B C D E F G H I J K L M N O P Q R S T U V W X Y Z

Green Day - Platypus tab

-------------------------------------------------------------------------------
			     Platypus (I Hate You) – Green Day
-------------------------------------------------------------------------------
Tabbed by: Thedboy

Tuning: Standard

| /  slide up
| \  slide down
| h  hammer-on
| p  pull-off
| ~  vibrato
| +  harmonic
| x  Mute note


Great song to play if your angry at something:

This song needs super fast strumming on the verse, chorus and parts of the intro and interlude.

Intro Part 1 (x4)

e--------------------------------------------------------------------------------------|
B--------------------------------------------------------------------------------------|
G-4444---------------------------------------------------------------------------------|
D-4444—55—44---------------------------------------------------------------------------|
A-2222—55-44---------------------------------------------------------------------------|
E------33-22---------------------------------------------------------------------------|

intro part 2 (guitar only)
needs to be played really fast
e--------------------------------------------------------------------------|
B--------------------------------------------------------------------------|
G----------------9999---------—--—--—--9-----------------------------------|
D---9999--7777---9999--9999-9999-7777--9--7-7-8-9--------------------------|
A---9999--7777---7777--9999-9999-7777--7--7-7-8-9--------------------------|
E---7777--5555---------7777-7777-5555-----5-5-6-7--------------------------|

Verse (x2)

e|---------------------------------------------------------------------------|
B|---------------------------------------------------------------------------|
G|------------9999-------------------9999------------------------------------|
D|-9999-7777--9999--9999--9999-7777--9999-9999-------------------------------|
A|-9999-7777--7777--9999--9999-7777--7777-9999-------------------------------|
E|-7777-5555--------7777--7777-5555-------7777-------------------------------|

Chorus:
     No-one loves you and you know it don’t pretend that you enjoy it
e|---------------------------------------------------------------------------|
B|---------------------------------------------------------------------------|
G|---------------------------------------------------------------------------|
D|--77777777777777777777777777777777777777777777777777777777777777777--------|
A|--77777777777777777777777777777777777777777777777777777777777777777--------|
E|--55555555555555555555555555555555555555555555555555555555555555555--------|

  Or you don’t care
e|---------------------------------------------------------------------------|
B|---------------------------------------------------------------------------|
G|-9--9---9------------------------------------------------------------------|
D|-9--9---9------9999999999--------------------------------------------------|
A|-7--7---7------9999999999--------------------------------------------------|
E|---------------7777777777--------------------------------------------------|

   coz now I wouldn’t lie or tell you all the things you wanna hear
e|---------------------------------------------------------------------------|
B|---------------------------------------------------------------------------|
G|---------------------------------------------------------------------------|
D|--7777777777777777777777777777777777777777777777777777777777774444444444---|
A|--7777777777777777777777777777777777777777777777777777777777774444444444---|
E|--5555555555555555555555555555555555555555555555555555555555552222222222---|

chorus end play 4 times
   coz I hate  you
e|---------------------------------------------------------------------------|
B|---------------------------------------------------------------------------|
G|-9---9--9------------------------------------------------------------------|
D|-9---9--9----9999999999----------------------------------------------------|
A|-7---7--7----9999999999----------------------------------------------------|
E|-------------7777777777----------------------------------------------------|

Bridge:

e|---------------------------------------------------------------------------|
B|---------------------------------------------------------------------------|
G|------------9999-------------------9999------------------------------------|
D|-9999-7777--9999--9999--9999-7777--9999-9999-------------------------------|
A|-9999-7777--7777--9999--9999-7777--7777-9999-------------------------------|
E|-7777-5555--------7777--7777-5555-------7777-------------------------------|

Verse: (x2)

e|---------------------------------------------------------------------------|
B|---------------------------------------------------------------------------|
G|------------9999-------------------9999------------------------------------|
D|-9999-7777--9999--9999--9999-7777--9999-9999-------------------------------|
A|-9999-7777--7777--9999--9999-7777--7777-9999-------------------------------|
E|-7777-5555--------7777--7777-5555-------7777-------------------------------|

Chorus:
     No-one loves you and you know it don’t pretend that you enjoy it
e|---------------------------------------------------------------------------|
B|---------------------------------------------------------------------------|
G|---------------------------------------------------------------------------|
D|--77777777777777777777777777777777777777777777777777777777777777777--------|
A|--77777777777777777777777777777777777777777777777777777777777777777--------|
E|--55555555555555555555555555555555555555555555555555555555555555555--------|

  Or you don’t care
e|---------------------------------------------------------------------------|
B|---------------------------------------------------------------------------|
G|-9--9---9------------------------------------------------------------------|
D|-9--9---9------9999999999--------------------------------------------------|
A|-7--7---7------9999999999--------------------------------------------------|
E|---------------7777777777--------------------------------------------------|

   coz now I wouldn’t lie or tell you all the things you wanna hear
e|---------------------------------------------------------------------------|
B|---------------------------------------------------------------------------|
G|---------------------------------------------------------------------------|
D|--7777777777777777777777777777777777777777777777777777777777774444444444---|
A|--7777777777777777777777777777777777777777777777777777777777774444444444---|
E|--5555555555555555555555555555555555555555555555555555555555552222222222---|

chorus end play 4 times
   coz I hate  you
e|---------------------------------------------------------------------------|
B|---------------------------------------------------------------------------|
G|-9---9--9------------------------------------------------------------------|
D|-9---9--9----9999999999----------------------------------------------------|
A|-7---7--7----9999999999----------------------------------------------------|
E|-------------7777777777----------------------------------------------------|


Interlude (x8)

e--------------------------------------------------------------------------------------|
B--------------------------------------------------------------------------------------|
G-4444---------------------------------------------------------------------------------|
D-4444—55—44---------------------------------------------------------------------------|
A-2222—55-44---------------------------------------------------------------------------|
E------33-22---------------------------------------------------------------------------|

follow this with:

(note: this part needs the fastest strumming)
e|---------------------------------------------------------------------------|
B|---------------------------------------------------------------------------|
G|----------------------------------------1111111111111111111----------------|
D|-44444444-88888888-11111111111111111111-1111111111111111111----------------|
A|-44444444-88888888-11111111111111111111-9-9-9-9-9-9-9-9-9-9----------------|
E|-22222222-66666666-9-9-9-9-9-9-9-9-9-9-------------------------------------|

Verse: (x2)

e|---------------------------------------------------------------------------|
B|---------------------------------------------------------------------------|
G|------------9999-------------------9999------------------------------------|
D|-9999-7777--9999--9999--9999-7777--9999-9999-------------------------------|
A|-9999-7777--7777--9999--9999-7777--7777-9999-------------------------------|
E|-7777-5555--------7777--7777-5555-------7777-------------------------------|

Outro:
e--------------------------------------------------------------------------|
B--------------------------------------------------------------------------|
G----------------9999---------—--—--—--9-----------------------------------|
D---9999--7777---9999--9999-9999-7777--9--7-7-8-9--------------------------|
A---9999--7777---7777--9999-9999-7777--7--7-7-8-9--------------------------|
E---7777--5555---------7777-7777-5555-----5-5-6-7--------------------------|

ahh, Billie Joe is such a calm tempered man!!
such a fun song to play-good luck!!

Lyrics:

Verse:
Your rise and fall back up against the wall
what goes around is coming back and haunting you
Its time to quit, coz you aint worth the shit
under my shoes or the piss on the ground

Chorus:
No-one loves you and you know it don’t pretend that you enjoy it or you don’t care
coz now I wouldn’t lie or tell you all the things you wanna hear
coz I hate you, coz I hate you, coz I hate you, coz I hate you

Verse:
I heard your sick, sucked on that cancer stick, a throbbing tumour and a radiation high
shit out, of luck and now your time is up, it brings me pleasure just to know your gonna die

Chorus

Interlude:
Dickhead, Fuckface, Cocksmoking, mother fucking, asshole, dirty twat, waste of semen, 
you die hey!

Verse:
Red eye code blue
I’d like to strangle you and watch your eyes bulge right out of your skull,
when you go down,
head first into the ground, I’ll stand above you just to piss on your grave

Chorus

Order
Intro part 1
intro part 2
Verse 1 (x4)
Chorus
Bridge (x2)
Verse 2 (x4)
Chorus
Interlude
Verse 3 (x4)
Chorus
Outro
===============================================================================
Tap to rate this tab
 
# A B C D E F G H I J K L M N O P Q R S T U V W X Y Z