Green Day - Jesus Of Suburbia tab

Tabbed by:Eric-Oliver Hurtubise

I love Green Day, and who doesn't.That is why it is my pleasure to do the complete 
of Jesus of Suburbia; a great song from their bold
and successful rock opera album entitled American Idiot. I know that it is not very
on my behalf to say this, but i'll say it anyway: this is the best tab out there, even
than the one in the official book which is less explicit than this version. You might 
that this is freakin long, but if you scroll down at a good pace you can probably play along
the song. After listening and tabbing for a few hours, I hope you enjoy this work so 
rate, comment, correct (I am doubtful about it, unless its a typo error).The vocals are 
timed with the guitar part. Nothing is missing.So without further wait, here is Jesus of Suburbia:

I. Jesus of Suburbia (0:00)

                 I'm the son of rage and love,__       The
|---------------------------------------------6---6---6----|
|-----6---6---6---6---------------------------6---6---6----|
|-----6---6---6---6---------------------------6---6---6----|
|-----6---6---6---6---------------------------8---8---8----|
|-----4---4---4---4---------------------------8---8---8----|
|---------------------------------------------6---6---6----|


   Je-sus of Sub-ur-bi-a, from the bi-ble of__ none of the a-bove,_ on a

|--6--------------------------------------------------------------------|
|--6--------------------------------------------------------------------|
|--6--------------------------------------------------------------------|
|--8--------------------------------------------------------------------|
|--8-------------------8-/---------4-4-4-4--4-4-6--4--4-4-4-4--4-4-6----|
|--6-------------------6-/---------2-2-2-2--2-2-2--2--2-2-2-2--2-2-2----|


   stead - y  di - et of____
|----------------------------------------------------------|
|----------------------------------------------------------|
|----------------------------------------------------------|
|----------------------------------------------------------|
|-6--6--6--6--8--6--6--6---6-6-6-6-6-6---------------------|
|-4--4--4--4--4--4--4--4---4-4-4-4-4-4-4/------------------|


                  So-da pop and Rit-a-lin
|---------------------------------------------6---6---6----|
|-----6---6---6---6---------------------------6---6---6----|
|-----6---6---6---6---------------------------6---6---6----|
|-----6---6---6---6---------------------------8---8---8----|
|-----4---4---4---4---------------------------8---8---8----|
|---------------------------------------------6---6---6----|

   No one ev - er died from my sins_ in hell_ as far as  I can  Tell
|--6--------------------------------------------------------------------|
|--6--------------------------------------------------------------------|
|--6--------------------------------------------------------------------|
|--8--------------------------------------------------------------------|
|--8-------------------8-/---------4-4-4-4--4-4-6--4--4-4-4-4--4-4-6----|
|--6-------------------6-/---------2-2-2-2--2-2-2--2--2-2-2-2--2-2-2----|


  At least the  ones  I got A - Way with     But there's
|----------------------------------------------------------|
|----------------------------------------------------------|
|----------------------------------------------------------|
|----------------------------------------------------------|
|-6--6--6--6--8--6--6--6---6-6-6-6-6-6---------------------|
|-4--4--4--4--4--4--4--4---4-4-4-4-4-4--12/----------------|

 Noth-ing wrong with me__         This is
|----------------------------------------------------------|
|----------------------------------------------------------|
|----------------------------------------------------------|
|--4---4---4--4--4--6----6-6-6-6-6-6/----------------------|
|--4---4---4--4--4--6----6-6-6-6-6-6/----------------------|
|--2---2---2--2--2--4----4-4-4-4-4-4/----------------------|


  How  I'm s'posed to  be____    in a
|----------------------------------------------------------|
|----------------------------------------------------------|
|----------------------------------------------------------|
|--4---4---4--4--4--6----6-6-6-6-6-6/----------------------|
|--4---4---4--4--4--6----6-6-6-6-6-6/----------------------|
|--2---2---2--2--2--4----4-4-4-4-4-4/----------------------|


Land of make be - lieve___    That don't be-lieve in  me.__
|------------------------------------------------------------------------|
|------------------------------------------------------6--6--------------|
|------------------------------------------------------6--6--------------|
|--4---4---4--4--4--6-----6--6--6--6-------------------6--6--------------|
|--4---4---4--4--4--6-----6--6--6--6-------------------4--4--6-6-6-4-----|
|--2---2---2--2--2--4-----4--4--4--4-------------------------4-4-4-2-----|


|-------------------------------------------------------|
|-----------------6--6----------------------------------|
|-----------------6--6----------------------------------|
|-----------------6--6----------------------------------|
|--4-4-4-4-4-4/---4--4--6-6-6-4---4-4-4-4-4-4-----------|
|--2-2-2-2-2-2/---------4-4-4-2---2-2-2-2-2-2-----------|

                 Get my tel-e-vi-sion fix,__
|---------------------------------------------6---6---6----|
|-----6---6---6---6---------------------------6---6---6----|
|-----6---6---6---6---------------------------6---6---6----|
|-----6---6---6---6---------------------------8---8---8----|
|-----4---4---4---4---------------------------8---8---8----|
|---------------------------------------------6---6---6----|

  Sitting on my cru-ci-fix. The  Living room_ in my pri-vate womb,_while
 the
|--6--------------------------------------------------------------------|
|--6--------------------------------------------------------------------|
|--6--------------------------------------------------------------------|
|--8--------------------------------------------------------------------|
|--8-------------------8-/---------4-4-4-4--4-4-6--4--4-4-4-4--4-4-6/---|
|--6-------------------6-/---------2-2-2-2--2-2-2--2--2-2-2-2--2-2-2/---|


  moms  and  Brads are away
|----------------------------------------------------------|
|----------------------------------------------------------|
|----------------------------------------------------------|
|----------------------------------------------------------|
|-6--6--6--6--8--6--6--6---6-6-6-6-6-6---------------------|
|-4--4--4--4--4--4--4--4---4-4-4-4-4-4-4/------------------|


                 Fall in love and fall in debt,_
|---------------------------------------------6---6---6----|
|-----6---6---6---6---------------------------6---6---6----|
|-----6---6---6---6---------------------------6---6---6----|
|-----6---6---6---6---------------------------8---8---8----|
|-----4---4---4---4---------------------------8---8---8----|
|---------------------------------------------6---6---6----|

-----------------------------------------------------------------------|   To al-co-hol 
ci-ga-rettes and Mar-y Jane to keep me in - sane
|--6-------------------------------------------------------------------|
|--6-------------------------------------------------------------------|
|--6-------------------------------------------------------------------|
|--8-------------------------------------------------------------------|
|--8-------------------8-/---------4-4-4-4--4-4-6--4--4-4-4-4--4-4-6/--|
|--6-------------------6-/---------2-2-2-2--2-2-2--2--2-2-2-2--2-2-2/--|

 and do-ing some-one ele-'s co-caine._  But there's
|----------------------------------------------------------|
|----------------------------------------------------------|
|----------------------------------------------------------|
|----------------------------------------------------------|
|-6--6--6--6--8--6--6--6---6-6-6-6-6-6---------------------|
|-4--4--4--4--4--4--4--4---4-4-4-4-4-4-4/------------------|

Noth-ing wrong with me__         This is
|----------------------------------------------------------|
|----------------------------------------------------------|
|----------------------------------------------------------|
|--4---4---4--4--4--6----6-6-6-6-6-6/----------------------|
|--4---4---4--4--4--6----6-6-6-6-6-6/----------------------|
|--2---2---2--2--2--4----4-4-4-4-4-4/----------------------|


  How  I'm s'posed to  be____    in a
|----------------------------------------------------------|
|----------------------------------------------------------|
|----------------------------------------------------------|
|--4---4---4--4--4--6----6-6-6-6-6-6/----------------------|
|--4---4---4--4--4--6----6-6-6-6-6-6/----------------------|
|--2---2---2--2--2--4----4-4-4-4-4-4/----------------------|


Land of make be - lieve___    That don't be-lieve in  me.__
|------------------------------------------------------------------------|
|------------------------------------------------------6--6--------------|
|------------------------------------------------------6--6--------------|
|--4---4---4--4--4--6-----6--6--6--6-------------------6--6--------------|
|--4---4---4--4--4--6-----6--6--6--6-------------------4--4--6-6-6-4-----|
|--2---2---2--2--2--4-----4--4--4--4-------------------------4-4-4-2-----|


|-------------------------------------------------------|
|-----------------6--6----------------------------------|
|-----------------6--6----------------------------------|
|-----------------6--6----------------------------------|
|--4-4-4-4-4-4/---4--4--6-6-6-4---4-4-4-4-4-4-----------|
|--2-2-2-2-2-2/---------4-4-4-2---2-2-2-2-2-2-----------|

|---------------------------------------------6---6---6----|
|-----6---6---6---6---------------------------6---6---6----|
|-----6---6---6---6---------------------------6---6---6----|
|-----6---6---6---6---------------------------8---8---8----|
|-----4---4---4---4---------------------------8---8---8----|
|---------------------------------------------6---6---6----|

|--6--------------------------------------------------------------------|
|--6--------------------------------------------------------------------|
|--6--------------------------------------------------------------------|
|--8--------------------------------------------------------------------|
|--8-------------------8-/---------4-4-4-4--4-4-6--4--4-4-4-4--4-4-6/---|
|--6-------------------6-/---------2-2-2-2--2-2-2--2--2-2-2-2--2-2-2/---|

|----------------------------------------------------------|
|----------------------------------------------------------|
|----------------------------------------------------------|
|----------------------------------------------------------|
|-6--6--6--6--8--6--6--6---6-6-6-6-6-6---------------------|
|-4--4--4--4--4--4--4--4---4-4-4-4-4-4-4/------------------|


|-----------------------------------------------------------|
|-----6---6---6---6-----------------------------------------|
|-----6---6---6---6-----------------------------------------|
|-----6---6---6---6---------------------------3---3---3---3-|
|-----4---4---4---4---------------------------3---3---3---3-|
|---------------------------------------------1---1---1---1-|


                                        At the
|-------------------------------------------|
|--6---6---6--------------------------------|
|--6---6---6--------------------------------|
|--8---8---8--6--6---6--4-------------------|
|--8---8---8--6--6---6--4--------4/6--------|
|--6---6---6--4--4---4--2--------2/4--------|

II.CITY OF THE DAMNED(1:51)


Cen-ter
of the earth in the park-king lot_ of the sev-en e-lev-en where i was
taught

|-------------------------------------------------------------------------|
|-------------------------------------------------------------------------|
|-------------------------------------------------------------------------|
|-------------------------------------------------------------------------|
|-------------------------------------------------------------------------|
|---------------------------------------------------------------------9/x-|


         The mot-to was just a lie___          It says_
|----------------------------------------------------|
|----------------------------------------------------|
|----------------------------------------------------|
|4--4--4--4---4---4----4---4----6-6-6-6-6-6-6--------|
|4--4--4--4---4---4----4---4----6-6-6-6-6-6-6--/-----|
|2--2--2--2---2---2----2---2----4-4-4-4-4-4-4--/-----|


Home is
where your heart is.But what a shame_ cause_every-ones doesn't beat the same
|------------------------------------------------------------------------|
|------------------------------------------------------------------------|
|------------------------------------------------------------------------|
|------------------------------------------------------------------------|
|--4~-------------4/6-4-3~-------------------1~---------1/3-1------------|
|-------------------------------------------------------------4~------4\-|


         We're bea-ting out_of time__
|---------------------------------------------------|
|---------------------------------------------------|
|---------------------------------------------------|
|4--4--4--4---4---4----4---4----6-6-6-6-6-6-6-------|
|4--4--4--4---4---4----4---4----6-6-6-6-6-6-6-------|
|2--2--2--2---2---2----2---2----4-4-4-4-4-4-4--11/--|

         Cit-y  of the dead_        At the end of an-oth-er lost highway
|------------------------------------------------------------------|
|---------------------------------6-6-6-6-6------------------------|
|---------------------------------6-6-6-6-6------------------------|
|---------------------------------6-6-6-6-6------------------------|
|--8-8-8-8-8------6-6-6-6--6------4-4-4-4-4--4/--4-4-4-4-4---------|
|--6-6-6-6-6--6/--4-4-4-4--4--4/-----------------2-2-2-2-2--2/-----|

       Signs mis-lead-ing to_ no - where.__
|----------------------------------------------------------|
|----------------------------------------------------------|
|----------------------------------------------------------|
|----------------------------------------------------------|
|-8--8--8--8--x--6--6--6--6--x--4--4--4--4--4--4--4--------|
|-6--6--6--6--x--4--4--4--4--x--2--2--2--2--2--2--2--------|

 Cit-y of the damned,_       Lost chil-dren dirt-y fac-es to-day
|------------------------------------------------------------------|
|---------------------------------6-6-6-6-6------------------------|
|---------------------------------6-6-6-6-6------------------------|
|---------------------------------6-6-6-6-6------------------------|
|--8-8-8-8-8------6-6-6-6--6------4-4-4-4-4--4/--4-4-4-4-4---------|
|--6-6-6-6-6--6/--4-4-4-4--4--4/-----------------2-2-2-2-2--2/-----|


      No one real-ly seems to care
|----------------------------------------------------|
|----------------------------------------------------|
|----------------------------------------------------|
|----------------------------------------------------|
|-8--8--8--8--x--6--6--6--6--x--4-4-4-4-4-4-4--------|
|-6--6--6--6--x--4--4--4--4--x--2-2-2-2-2-2-2--------|

Read the graf-fi-ti
in the bath-room stall, like the Ho-Ly Scrip-tures of the shop-ping
mall._
|-------------------------------------------------------------------------|
|-------------------------------------------------------------------------|
|-------------------------------------------------------------------------|
|-------------------------------------------------------------------------|
|-------------------------------------------------------------------------|
|---------------------------------------------------------------------9/x-|


        And so it seemed to con - fess
|----------------------------------------------------|
|----------------------------------------------------|
|----------------------------------------------------|
|4--4--4--4---4---4----4---4----6-6-6-6-6-6-6--------|
|4--4--4--4---4---4----4---4----6-6-6-6-6-6-6--/-----|
|2--2--2--2---2---2----2---2----4-4-4-4-4-4-4--/-----|


Didn't say much
but it on-ly con-firmed that center of the earth is the end of the world._
|------------------------------------------------------------------------|
|------------------------------------------------------------------------|
|------------------------------------------------------------------------|
|------------------------------------------------------------------------|
|--4~-------------4/6-4-3~-------------------1~---------1/3-1------------|
|-------------------------------------------------------------4~------4\-|


      And I could real-ly care  less.__
|---------------------------------------------------|
|---------------------------------------------------|
|---------------------------------------------------|
|4--4--4--4---4---4----4---4----6-6-6-6-6-6-6-------|
|4--4--4--4---4---4----4---4----6-6-6-6-6-6-6-------|
|2--2--2--2---2---2----2---2----4-4-4-4-4-4-4--11/--|

Cit-y  of the dead_        At the end of an-oth-er lost highway
|------------------------------------------------------------------|
|---------------------------------6-6-6-6-6------------------------|
|---------------------------------6-6-6-6-6------------------------|
|---------------------------------6-6-6-6-6------------------------|
|--8-8-8-8-8------6-6-6-6--6------4-4-4-4-4--4/--4-4-4-4-4---------|
|--6-6-6-6-6--6/--4-4-4-4--4--4/-----------------2-2-2-2-2--2/-----|

       Signs mis-lead-ing to_ no - where.__
|----------------------------------------------------------|
|----------------------------------------------------------|
|----------------------------------------------------------|
|----------------------------------------------------------|
|-8--8--8--8--x--6--6--6--6--x--4--4--4--4--4--4--4--------|
|-6--6--6--6--x--4--4--4--4--x--2--2--2--2--2--2--2--------|

       Cit-y of the damned,_       Lost chil-dren dirt-y fac-es to-day
|------------------------------------------------------------------|
|---------------------------------6-6-6-6-6------------------------|
|---------------------------------6-6-6-6-6------------------------|
|---------------------------------6-6-6-6-6------------------------|
|--8-8-8-8-8------6-6-6-6--6------4-4-4-4-4--4/--4-4-4-4-4---------|
|--6-6-6-6-6--6/--4-4-4-4--4--4/-----------------2-2-2-2-2--2/-----|


      No one real-ly seems to care____________________
|----------------------------------------------------|
|----------------------------------------------------|
|----------------------------------------------------|
|----------------------------------------------------|
|-8--8--8--8--x--6--6--6--6--x--4-4-4-4-4-4-4--------|
|-6--6--6--6--x--4--4--4--4--x--2-2-2-2-2-2-2--------|

_____________________________________________________  Hey!
|-----------------------------------------------------------|
|2-2-2-2-2-2-2-2-2-2-2-2-2-2-2-2-2-2-2-2-2-2-2-2-2-2-2-2-2-2|
|3-3-3-3-3-3-3-3-3-3-3-3-3-3-3-3-3-3-3-3-3-3-3-3-3-3-3-3-3-3|
|4-4-4-4-4-4-4-4-4-4-4-4-4-4-4-4-4-4-4-4-4-4-4-4-4-4-4-4-4-4|
|4-4-4-4-4-4-4-4-4-4-4-4-4-4-4-4-4-4-4-4-4-4-4-4-4-4-4-4-4-4|
|2-2-2-2-2-2-2-2-2-2-2-2-2-2-2-2-2-2-2-2-2-2-2-2-2-2-2-2-2-2|


III.I DON'T CARE (3:42)

|-----------------------------------------------------------------|
|------------------------------6--4--2/-7-7--7-7-7--6--4--2/-9~---|
|-------------6-6-6-----------------------------------------------|
|--6-6--6-6-6-------6-6--6-6-6------------------------------------|
|--------------------------------------------------------------11/|
|-----------------------------------------------------------------|

I don't care
if you don't,I dont care if you don't,I don't care if you don't care
|--------------------------------------------------------------------------|
|--------------------------------------------------------------------------|
|------------6-6-6------------6-6-6------------6-6-6-----------------------|
|-6-6--6-6-6-6-6-6-6-6--6-6-6-6-6-6-4-4--4-4-4-6-6-6-6-6--6-6-6--6-6--6-6-6|
|-6-6--6-6-6-4-4-4-6-6--6-6-6-4-4-4-4-4--4-4-4-4-4-4-6-6--6-6-6--6-6--6-6-6|
--4-4--4-4-4-------4-4--4-4-4-------2-2--2-2-2-------4-4--4-4-4--4-4--4-4-4|

To
 be played four times. (at this point i am getting tired)

 I don't care_____________________________________________
|-------------------------------------------------------|
|-------------------------------------------------------|
|-----666-6-666-6-666-6-----666-6-666-6-666-6-----------|
|-4-6-666-6-666-6-666-6-7-6-666-6-666-6-666-6-7-6-------|
|-4-6-444-4-444-4-444-4-7-6-444-4-444-4-444-4-7-6-------|
|-2-4-------------------5-4-------------------5-4-------|


|------------------------------------------------------|
|------------------------------------------------------|
|--666-6-666-6-666-6-----666-6-666-6-666-6-------------|
|--666-6-666-6-666-6-7-6-666-6-666-6-666-6-7-6---------|
|--444-4-444-4-444-4-7-6-444-4-444-4-444-4-7-6---------|
|--------------------5-4-------------------5-4---------|


Ev-ry-one's so full shit,__   Born and raised by hy-po-crites.__
|--------------------------------------------------------------------------|
|--------------------------------------------------------------------------|
|--------------------------------------------------------------------------|
|----------------------7-6----------------------------------7-6------------|
|----------------------7-6----------------------------------7-6------------|
|----------------------5-4----------------------------------5-4------------|


Hearts
 re-cy-cled but never saved_ From the cradle to the grave_
|--------------------------------------------------------------------------|
|--------------------------------------------------------------------------|
|--------------------------------------------------------------------------|
|-----------------------------7-6----------------------------7-6-----------|
|-----------------------------7-6----------------------------7-6-----------|
|-----------------------------5-4----------------------------5-4-----------|


We
 are the kids of war and peace_From Anaheim to the middle east
|--------------------------------------------------------------------------|
|--------------------------------------------------------------------------|
|--------------------------------------------------------------------------|
|-----------------------------7-6----------------------------7-6-----------|
|-----------------------------7-6----------------------------7-6-----------|
|-----------------------------5-4----------------------------5-4-----------|

We
 ate the stories and the disciples of_ the jesus of Suburbia!
|----------------------------------------------------------------------------|
|----------------------------------------------------------------------------|
|----------------------------------------------------------------------------|
|-----------------------------------7-6----------------------7-6-------------|
|-----------------------------------7-6----------------------7-6-------------|
|-----------------------------------5-4----------------------5-4-------------|


 Land of make be-lieve   And it don't believe in me
|----------------------------------------------------|
|----------------------------------------------------|
|----------------------6-------------------------6---|
|-4-4-4-4--4-4-4-4-x-6-6-6--4-4-4-4--4-4-4-4-x-6-6-6-|
|-4-4-4-4--4-4-4-4-x-6-4-6--4-4-4-4--4-4-4-4-x-6-4-6-|
|-2-2-2-2--2-2-2-2-x-4---4--2-2-2-2--2-2-2-2-x-4---4-|


 Land of make be-lieve   and I don't be-lieve and I don't
|-------------------------------------------------------|
|-------------------------------------------------------|
|----------------------6--------------------------------|
|-4-4-4-4--4-4-4-4-x-6-6-6--4-4-4-4--4-4-4-4-x-6--4-6---|
|-4-4-4-4--4-4-4-4-x-6-4-6--4-4-4-4--4-4-4-4-x-6--4-6---|
|-2-2-2-2--2-2-2-2-x-4---4--2-2-2-2--2-2-2-2-x-4--2-4---|

care(WHOO)(WHOO)(WHOO),
I don't care WHOO WHOO WHOO,I don't care(WHOO WHOO WHOO) I don't
|--------------------------------------------------------------------|
|--------------------------------------------------------------------|
|-666-6-666-6-666-6------666-6-666-6-666-6------666-6-666-6-666------|
|-666-6-666-6-666-6-4-6--666-6-666-6-666-6-4-6--666-6-666-6-666-4-6--|
|-444-4-444-4-444-4-4-6--444-4-444-4-444-4-4-6--444-4-444-4-444-4-6--|
|-------------------2-4--------------------2-4------------------2-4--|

  Care.
|---------------------------------------------|
|--6----6----6-----6--------------------------|
|--6----6----6-----6---5-5-5--5~--------------|
|--6----6----6-----6---6-6-6--6~--------------|
|--4----4----4-----4---6-6-6--6~--------------|
|----------------------4-4-4--4~--------------|


IV. DEARLY BELOVED (5:25)

      Dearly beloved are you lis-ten-ing?         I can't remember a

|-------------------------------------------------------------------------|
|-------------------------------------------------------------------------|
|-------------------------------------------------------------------------|
|---------------------------4/5----------------5/6------------------------|
|--5/6----------------------2/3----------------3/4------------------------|
|--3/4--------------------------------------------------------------------|

 Word   that   you were sa - ying._
|-------------------------------------------------------------------------|
|-------------------------------------------------------------------------|
|-------------------------------------------------------------------------|
|------------------------------7/8----------------------------------------|
|---5/6------------------------5/6----------------------------------------|
|---3/4-------------------------------------------------------------------|


(Acoustic
 sounds good with this)
    Are we de-men-ted or am I dis-tur-bed?
|--------------------------------------------------------|
|---------------------------4----4----4----4-4-x---------|
|---5----5----5----5-5-x----5----5----5----5-5-x---------|
|---6----6----6----6-6-x----5----5----5----5-5-x---------|
|---6----6----6----6-6-x--3----3----3----3---------------|
|-4----4----4----4---------------------------------------|

    The space that's in be-tween in-sane and in-se-cure
|----------------------------------------------------------|
|----6----6----6----6-6-x--------------8----8-8-x----------|
|----6----6----6----6-6-x----5----5----8----8-8-x----------|
|----6----6----6----6-6-x----6----6----8----8-8-x----------|
|--4----4----4----4----------6----6--6----6----------------|
|--------------------------4----4--------------------------|

 (Whoo! part)
|--------------------------------------------------------|
|---------------------------4----4----4----4-4-x---------|
|---5----5----5----5-5-x----5----5----5----5-5-x---------|
|---6----6----6----6-6-x----5----5----5----5-5-x---------|
|---6----6----6----6-6-x--3----3----3----3---------------|
|-4----4----4----4---------------------------------------|

(Whoo! part)
|----------------------------------------------------------|
|----6----6----6----6-6-x--------------8----8-8-x----------|
|----6----6----6----6-6-x----5----5----8----8-8-x----------|
|----6----6----6----6-6-x----6----6----8----8-8-x----------|
|--4----4----4----4----------6----6--6----6----------------|
|--------------------------4----4--------------------------|


 Oh ther-a-py can you please fill the void?
|--------------------------------------------------------|
|---------------------------4----4----4----4-4-x---------|
|---5----5----5----5-5-x----5----5----5----5-5-x---------|
|---6----6----6----6-6-x----5----5----5----5-5-x---------|
|---6----6----6----6-6-x--3----3----3----3---------------|
|-4----4----4----4---------------------------------------|


  Am I re-tar-ded or am I just o-ver-joyed?_
|----------------------------------------------------------|
|----6----6----6----6-6-x--------------8----8-8-x----------|
|----6----6----6----6-6-x----5----5----8----8-8-x----------|
|----6----6----6----6-6-x----6----6----8----8-8-x----------|
|--4----4----4----4----------6----6--6----6----------------|
|--------------------------4----4--------------------------|

  Nobody's per-fect and I stand ac-cused_
|--------------------------------------------------------|
|---------------------------4----4----4----4-4-x---------|
|---5----5----5----5-5-x----5----5----5----5-5-x---------|
|---6----6----6----6-6-x----5----5----5----5-5-x---------|
|---6----6----6----6-6-x--3----3----3----3---------------|
|-4----4----4----4---------------------------------------|

 For lack of a bet-ter word and thats my best ex-cuse
|----------------------------------------------------------|
|----6----6----6----6-6-x--------------8----8-8-x----------|
|----6----6----6----6-6-x----5----5----8----8-8-x----------|
|----6----6----6----6-6-x----6----6----8----8-8-x----------|
|--4----4----4----4----------6----6--6----6----------------|
|--------------------------4----4--------------------------|

Play for one more set for the last "whoo" part, then BAM:


V. TALES OF ANOTHER BROKEN HOME (6:31)

                                        To
e|--------------------------------------------|
B|--------------------------------------------|
G|-------------6-----------6------------6-----|
D|---6-------4-6-6-------4-6-6--------4-6-----|
A|---6-------4-4-6-------4-4-6--------4-4-----|
E|---4-------2---4-------2---4--------2-------|


  Live           and not to breathe              is to die
e|-----------------------------------------------------|
B|-----------------------------------------------------|
G|-----------------------6--------------------------6--|
D|-6-6--6-6-6-6--6-6-x-4-6--6-6--6-6-6-6-6--6-6-x-4-6--|
A|-6-6--6-6-6-6--6-6-x-4-4--6-6--6-6-6-6-6--6-6-x-4-4--|
E|-4-4--4-4-4-4--4-4-x-2----4-4--4-4-4-4-4--4-4-x-2----|


                   in tragedy                    To run
e|-----------------------------------------------------|
B|-----------------------------------------------------|
G|-----------------------6--------------------------6--|
D|-6-6--6-6-6-6--6-6-x-4-6--6-6--6-6-6-6-6--6-6-x-4-6--|
A|-6-6--6-6-6-6--6-6-x-4-4--6-6--6-6-6-6-6--6-6-x-4-4--|
E|-4-4--4-4-4-4--4-4-x-2----4-4--4-4-4-4-4--4-4-x-2----|


                    to runaway                  to find
e|-----------------------------------------------------|
B|-----------------------------------------------------|
G|-----------------------6--------------------------6--|
D|-6-6--6-6-6-6--6-6-x-4-6--6-6--6-6-6-6-6--6-6-x-4-6--|
A|-6-6--6-6-6-6--6-6-x-4-4--6-6--6-6-6-6-6--6-6-x-4-4--|
E|-4-4--4-4-4-4--4-4-x-2----4-4--4-4-4-4-4--4-4-x-2----|


                 what you believe                 And I__
e|-----------------------------------------------------|
B|-----------------------------------------------------|
G|-----------------------6--------------------------6--|
D|-6-6--6-6-6-6--6-6-x-4-6--6-6--6-6-6-6-6--6-6-x-4-6--|
A|-6-6--6-6-6-6--6-6-x-4-4--6-6--6-6-6-6-6--6-6-x-4-4--|
E|-4-4--4-4-4-4--4-4-x-2----4-4--4-4-4-4-4--4-4-x-2----|


                leave behind___
e|-----------------------------------------|
B|---------------------8--9--8--9--8--9----|
G|---6-----6-----6-----8--8--8--8--8--8----|     8          9 may seem odd
D|---6--6--6--6--6--6--8--6--8--6--8--6----|     8          8 but listen
A|---4--6--4--6--4--6----------------------| the 8  and the 6 closely and
E|------4-----4-----4----------------------| you will see it's spot on!


 This hur-ri-cane of fucking lies__
e|-----------------------------------------|
B|---------------------8--9--8--9--8--9----|
G|---6-----6-----6-----8--8--8--8--8--8----|
D|---6--6--6--6--6--6--8--6--8--6--8--6----|
A|---4--6--4--6--4--6----------------------|
E|------4-----4-----4----------------------|


  Lost         My faith to this                this town
e|-----------------------------------------------------|
B|-----------------------------------------------------|
G|-----------------------6--------------------------6--|
D|-6-6--6-6-6-6--6-6-x-4-6--6-6--6-6-6-6-6--6-6-x-4-6--|
A|-6-6--6-6-6-6--6-6-x-4-4--6-6--6-6-6-6-6--6-6-x-4-4--|
E|-4-4--4-4-4-4--4-4-x-2----4-4--4-4-4-4-4--4-4-x-2----|


                   That don't exist             So run
e|-----------------------------------------------------|
B|-----------------------------------------------------|
G|-----------------------6--------------------------6--|
D|-6-6--6-6-6-6--6-6-x-4-6--6-6--6-6-6-6-6--6-6-x-4-6--|
A|-6-6--6-6-6-6--6-6-x-4-4--6-6--6-6-6-6-6--6-6-x-4-4--|
E|-4-4--4-4-4-4--4-4-x-2----4-4--4-4-4-4-4--4-4-x-2----|


               I run-a-way                    to the light
e|-----------------------------------------------------|
B|-----------------------------------------------------|
G|-----------------------6--------------------------6--|
D|-6-6--6-6-6-6--6-6-x-4-6--6-6--6-6-6-6-6--6-6-x-4-6--|
A|-6-6--6-6-6-6--6-6-x-4-4--6-6--6-6-6-6-6--6-6-x-4-4--|
E|-4-4--4-4-4-4--4-4-x-2----4-4--4-4-4-4-4--4-4-x-2----|


                  of Mas-o-chists                  And I
e|-----------------------------------------------------|
B|-----------------------------------------------------|
G|-----------------------6--------------------------6--|
D|-6-6--6-6-6-6--6-6-x-4-6--6-6--6-6-6-6-6--6-6-x-4-6--|
A|-6-6--6-6-6-6--6-6-x-4-4--6-6--6-6-6-6-6--6-6-x-4-4--|
E|-4-4--4-4-4-4--4-4-x-2----4-4--4-4-4-4-4--4-4-x-2----|

 leave behind___
e|-----------------------------------------|
B|---------------------8--9--8--9--8--9----|
G|---6-----6-----6-----8--8--8--8--8--8----|
D|---6--6--6--6--6--6--8--6--8--6--8--6----|
A|---4--6--4--6--4--6----------------------|
E|------4-----4-----4----------------------|


 This hur-ri-cane of fucking lies__     And I
e|-----------------------------------------|
B|---------------------8--9--8--9--8--9----|
G|---6-----6-----6-----8--8--8--8--8--8----|
D|---6--6--6--6--6--6--8--6--8--6--8--6----|
A|---4--6--4--6--4--6----------------------|
E|------4-----4-----4----------------------|


       Walk this  line                  a
e|-----------------------------------------|
B|---------------------8--9--8--9--8--9----|
G|---6-----6-----6-----8--8--8--8--8--8----|
D|---6--6--6--6--6--6--8--6--8--6--8--6----|
A|---4--6--4--6--4--6----------------------|
E|------4-----4-----4----------------------|


Million and one fucking times      But not this
e|-------------------------------------------|
B|---------------------8--9--8--9--8--9------|
G|---6-----6-----6-----8--8--8--8--8--8----6-|
D|---6--6--6--6--6--6--8--6--8--6--8--6--4-6-|
A|---4--6--4--6--4--6--------------------4-4-|
E|------4-----4-----4--------------------2---|


   Time
e|--------------------------------------------------------|
B|--------------------------------------------------------|
G|--8-8--8-8--8-8--8-8------8-8--8-8--8-8--8-8------5/8~--|
D|--6-6--6-6--6-6--6-6---6--6-6--6-6--6-6--6-6---6--------|
A|--6-6--6-6--6-6--6-6-4-4--6-6--6-6--6-6--6-6-4-4--------|
E|---------------------2-----------------------2----------|

e|-------------------------------------------------------------------------|
B|-------------------------------------------------------------------------|
G|6-6/10-6-6/8~--8\6-5~--3-6-3-5~----5/8~---6-6/10-6-6/8~--8\6-5~--3-6-3-5~|
D|-------------------------------------------------------------------------|
A|-------------------------------------------------------------------------|
E|-------------------------------------------------------------------------|


e|-------------------------------------------------------------------------|
B|---7p6-9p6-7p6-9p6-7p6---9p8-11p8-9p8-11p8-9p8---7p6-9p6-7p6-9p6-9p6-----|
G|-/6---6---6---6---6---6/8---8----8---8----8---8\6---6---6---6---6---6/8--|
D|-------------------------------------------------------------------------|
A|-------------------------------------------------------------------------|
E|-------------------------------------------------------------------------|


e|---------------------------|
B|--9p8-11p8-9p8-11p8-9p8----|
G|-----8----8---8----8---8---|
D|---------------------------|
A|---------------------------|
E|---------------------------|

Piano interlude:

Fm            Eb           Ab             Db
I don't feel an-y shame,_ I won't a-pol-o-gize

                Eb                  Ab
When there ain't no-where you can  go._

Db           Eb              Ab                     Db
Running a-way from pain when you've been vic-ti-mized

              Eb
Tales from an-oth-er bro-ken..._____


                  You're leaving              You're Leaving
e|-----------------------------------------------------|
B|-----------------------------------------------------|
G|-----------------------6--------------------------6--|
D|-6-6--6-6-6-6--6-6-x-4-6--6-6--6-6-6-6-6--6-6-x-4-6--|
A|-6-6--6-6-6-6--6-6-x-4-4--6-6--6-6-6-6-6--6-6-x-4-4--|
E|-4-4--4-4-4-4--4-4-x-2----4-4--4-4-4-4-4--4-4-x-2----|


                  You're leaving           Are you leaving home
e|-----------------------------------------------------|
B|-----------------------------------------------------|
G|-----------------------6--------------------------6--|
D|-6-6--6-6-6-6--6-6-x-4-6--6-6--6-6-6-6-6--6-6-x-4-6--|
A|-6-6--6-6-6-6--6-6-x-4-4--6-6--6-6-6-6-6--6-6-x-4-4--|
E|-4-4--4-4-4-4--4-4-x-2----4-4--4-4-4-4-4--4-4-x-2----|


 home?

e|--------------------------------------------------------|
B|--------------------------------------------------------|
G|--8-8--8-8--8-8--8-8------8-8--8-8--8-8--8-8------------|
D|--6-6--6-6--6-6--6-6---6--6-6--6-6--6-6--6-6---6-6\-----|
A|--6-6--6-6--6-6--6-6-4-4--6-6--6-6--6-6--6-6-4-4-6\-----|
E|---------------------2-----------------------2---4\-----|


This is actually my first tab, so enjoy
Tap to rate this tab
 
# A B C D E F G H I J K L M N O P Q R S T U V W X Y Z