Green Day - Holiday tab

!This song is tabbed for 2 guitars!

Green Day  Holiday
Guitar 1:
E|----------------------------------------|
B|----------------------------------------|
G|10---10-------------13---13-------------|	INTRO 4x guitar 1.
D|10---10---11---11---13---13---13---13---|	After 4x together with
A|8----8----11---11---11---11---13---13---|	guitar 2 2x and then first
E|----------9----9--------------11---11---|     verse.

Guitar 2:
E|----------------------------------|
B|----------------------------------|
G|10---10---6---6-----------8---8---|	INTRO begin before first verse
D|10---10---6---6---6---6---8---8---|	together with guitar 1 (2x).
A|8----8----4---4---6---6---6---6---|
E|------------------4---4-----------|

Couplet (guitar 1):
E|------------------------------------------------------------------------|
B|------------------------------------------------------------------------|
G|10---10-------------13---13-------------10---10-------------13--13------|
D|10---10---11---11---13---13---13---13---10---10---11---11---13--13-10-10|
A|8----8----11---11---11---11---13---13---8----8----11---11---11--11-10-10|
E|----------9----9--------------11---11-------------9----9-----------8--8-|

E|---------------------------------------------|
B|---------------------------------------------|
G|10---10-------------13---13------------------|
D|10---10---11---11---13---13---10-10-10-10-10-|
A|8----8----11---11---11---11---10-10-10-10-10-|
E|----------9----9--------------8888888--|

Couplet (guitar 2):
E|--------------------------------------------------------------------|
B|--------------------------------------------------------------------|
G|10---10---6---6-----------8---8---10---10---6---4-----------5---5---|
D|10---10---6---6---6---6---8---8---10---10---6---4---6---6---5---5---|
A|8----8----4---4---6---6---6---6---8----8----4---4---6---6---3---3---|
E|------------------4---4-----------------------------4---4-----------|

E|--------------------------------------------|
B|--------------------------------------------|
G|10---10---6---6-----------8---8---5555555555|
D|10---10---6---6---6---6---8---8---5555555555|
A|8----8----4---4---6---6---6---6---3333333333|
E|------------------4---4---------------------|

Refrain (guitar 1):
E|--------------------------------------------------------|
B|--------------------------------------------------------|
G|10-10-10-10-----------------13-13-13-13-----------------|
D|10-10-10-10---11-11-11-11---13-13-13-13---13-13-13-13---|
A|88888-----11-11-11-11---11-11-11-11---13-13-13-13---|
E|--------------99999-------------------11-11-11-11---|

E|----------------------------------------------------------|
B|----------------------------------------------------------|
G|10-10-10-10-----------------13-13-13-13-------------------|
D|10-10-10-10---11-11-11-11---13-13-13-13---10-10-10-10-10--|
A|88888-----11-11-11-11---11-11-11-11---10-10-10-10-10--|
E|--------------99999-------------------888888-8---|
Refrain (guitar 2):
E|----------------------------------------|
B|----------------------------------------|
G|----------6-6-6-6-------------8-8-8-8---|
D|3-3-3-3---6-6-6-6---6-6-6-6---8-8-8-8---|
A|3-3-3-3---4-4-4-4---6-6-6-6---6-6-6-6---|
E|1-1-1-1-------------4-4-4-4-------------|

E|-----------------------------------------|
B|-----------------------------------------|
G|----------6-6-6-6-------------5-5-5-5-5--|
D|3-3-3-3---6-6-6-6---6-6-6-6---5-5-5-5-5--|
A|3-3-3-3---4-4-4-4---6-6-6-6---3-3-3-3-3--|
E|1-1-1-1-------------4-4-4-4--------------|

Bridge (guitar 1 & 2):
E|------------------------------------------------|
B|------------------------------------------------|
G|------------6---8------------------8-----10-----|	2x
D|3-3---6-6---6-8-8-10---3-3---6-6---8-10-10-----|
A|3-3---6-6---4-8-6-10---3-3---6-6---6-10-8------|
E|1-1---4-4-----6---8----1-1---4-4-----8----------|

Bridge (bass-part):
E|-------------------------------------------------|
B|-------------------------------------------------|
G|-------------------------------------------------|
D|------------------1-------------------1---3------|
A|--------------4-1---3-------------------3--------|
E|1-1-1---4-4-4-----------1-1-1---4-4-4------------|

Solo (guitar 1):
E|-----------------------------8---8------------------------|
B|6-6-6-8-9----------8-5-----6---6---8---6-6-6-8-9----------|
G|----------8-6-5~-------5~------------------------8-6-5~---|
D|----------------------------------------------------------|
A|----------------------------------------------------------|
E|----------------------------------------------------------|

E|----------------8-8-8-8-8-8-8-8-12-12-12-12-12-12-12-12-12-12-12-12-13~-|
B|8-8-8-8-8-8-8-8---------------------------------------------------------|
G|------------------------------------------------------------------------|
D|------------------------------------------------------------------------|
A|------------------------------------------------------------------------|
E|------------------------------------------------------------------------|

Solo (guitar 2):
E|--------------------------------------------------------------------|
B|--------------------------------------------------------------------|
G|10---10---6---6-----------8---8---10---10---6---4-----------555555--|
D|10---10---6---6---6---6---8---8---10---10---6---4---6---6---555555--|
A|8----8----4---4---6---6---6---6---8----8----4---4---6---6---333333--|
E|------------------4---4-----------------------------4---4-----------|

Endchord:
E|----|				E|----|
B|----|				B|----|
G|----|	<- Guitar 1.		G|----|	<- Guitar 2.
D|15--|				D|3---|
A|15--|				A|3---|
E|13--|				E|1---|
Tap to rate this tab
 
# A B C D E F G H I J K L M N O P Q R S T U V W X Y Z