Song name
# A B C D E F G H I J K L M N O P Q R S T U V W X Y Z

Green Day - Oh Love tab

Oh Love

i think the solo is right. they woulden't except it by itself so i had to
add somestuff so ignore the main part just judge the solo LOL

e|------|-----------------------------------------------------|
B|------|-start-X--X--X---------------------------------------|
G|--(x6)|-------X--x--X6--------X--X--X--6-6-6666------------*|
D|--(x6)|-6-6---X-x--X6--6-6---X--X--X--6-6-6666-6-6---X-X--| x4
A|--(x4)|-6-6--X-X--X4--6-6---X--X--X--4-4-4444-6-6---X--X-*|
E|------|-4-4------------4-4---------------------4-4---X-X--|

e|-------------------------------|
B|-------------------------------|
G|-------------------------------|
D|----6~6~6~---8888888888888888--|.. to chorus
A|----4~3~4~6~-6666666666666666--|
E-----------4~-------------------|

chorus
e|------------------------------------|
B|--------8---------------------------|
G|--------8-----------6---------------|
D|--6-----8(x4)-6-----6(X4)-----------|
A|--6(x4)-6-----6(x4)-4---------------|
E|--4-----------4---------------------|

------------------------------------|
--------8-----------8---------------|
--------8-----------8---------------|
--6-----8(x4)-6-----8(X4)-----(X2)--|
--6(x4)-6-----6(x4)-6---------------|
--4-----------4---------------------|

SOLO
e|-------------------------------------------------|---------FAST-----------|
B|-------------------------------------------------|-----9--9-8-------------|
G|-------------------------------------------------|-8-8-8------10-8--------|
D|---6~--6-5-6/8~--8-6-8/10~--10-8-10/11~--11-10-11|------------------------|
A|-------------------------------------------------|------------------------|
E|-------------------------------------------------|------------------------|

e|----FAST------------------------------------------------------------------|
B|----------------------9p8h9p8h9p8h9~-WOO----------------------------------|
G|--7p6p4--4b----4h6--------------------------------------------------------|
D|-------6------6-----------------------------------------------------------|
A|--------------------------------------------------------------------------|
E|--------------------------------------------------------------------------|

e|-------------------------------------------------------------------------|
B|-------------------------------------------------------------------------|
G|--13~--13-12-13/15~--15-13-15/17~--17-15-17/18~--18-17---18~17~18~13~----|
D|-------------------------------------------------------------------------|
A|-------------------------------------------------------------------------|
E|-------------------------------------------------------------------------|

e|-----------------------16-18~~--17-18--20-18-22~bend big--\\-------------|
B|--16~~--16-18-20~~--20---------------------------------------------------|
G|-------------------------------------------------------------------------|
D|-----------------------------------------------------------------6-6-----|
A|-----------------------------------------------------------------6-6-----|
E|-----------------------------------------------------------------4-4-----|
Tap to rate this tab
# A B C D E F G H I J K L M N O P Q R S T U V W X Y Z