Song name
# A B C D E F G H I J K L M N O P Q R S T U V W X Y Z

Green Day - Rusty James tab

Tuning: Standard

This is my first tab, nobody else did this song yet so I decided to write one for people to see.


Intro:

E-----------------------------------------------------I-----------------------|
B-----------------------------------------------------l-----------------------|
G---2---777---222---777---222---777---222---7777777l---222---777---222---7----|
D---2---777---222---777---222---777---222---7777777l---222---777---222---7----|
A---4---999---444---999---444---999---444---9999999l---444---999---444---9----|
E-----------------------------------------------------l-----------------------|

Verse: Pretty much palm muting the whole time till the Pre-chorus

E-----------------|
B-----------------|
G-----------------|
D---2---6---7---7-|
A---2---6---7---7-|
E---0---4---5---5-|
       *       *     *       *

Pre-Chorus:

E------------------------|
B------------------------|
G------------------------|
D---2---6---7---9--------|
A---2---6---7---9--------|x2
E---4---4---5---7--------|

Chorus:

E--------------------------------------|
B--------------------------------------|
G---7-------7-------7---6---7---11-----|
D---9---7---7---7---7---6---7---11-----|
A---9---7---9---7---9---8---9---9------|
E-------9-------9----------------------|

Intro

Verse

Pre-Chorus

Chorus

Solo: I don't know the solo yet but the 2nd guitar plays Verse and than Pre-Chorus

Chorus

Outro is the same as the Intro
Tap to rate this tab
 
# A B C D E F G H I J K L M N O P Q R S T U V W X Y Z