Song name
# A B C D E F G H I J K L M N O P Q R S T U V W X Y Z

Green Day - Sweet 16 tab

Green Day
Sweet 16
Tabbed by Andres Morales
ENJOY!


Intro:
---3-----2--|----0--0-------------|
---3-----3--|----1--1-----1-------|
---0-----2--|----0--0--0--0-------|
---0-----0--|----2--0--0--0-------|
---2-------------3--2--0--2-------|
---3----------------------3-------|
   |x6|  |x1|

Verse 1:
---3~---2~---0~---2~-----|---2-2----|
---3~---3~---1~---3~-----|---3-3----|
---0~---4~---2~---2~-----|---2-2----|
---0~---4~---2~---0~-----|---0-0----|
---2~---2~---0~----------|----------|
---3~------------------x2|----------|
Bring me back to an hour ago
Time stands still as the years go by

------3-----2-----0-----2---|
------3-----3-----1--3--3---|
------0--4--4--2--2--2--2---|
---0--0--4--4--2--2--0--0---|
---2--2--2--2--0--0--0------|
---3--3---------------------|x2
Brown eyed girl that's throwing down a bottle of Old English
Back in the warehouse

Chorus:
---0--3--2--3--0--2--3--0--3--|
---1--3--3--3--1--3--3--1--3--|
---0--0--4--0--0--2--0--0--0--|
---2--0--4--0--2--0--0--2--0--|
---3--2--2--2--3-----2--3--2--|
------3-----3--------3-----3--|
Old days are fine but are left so far behind
From California to Jane Street

---0--3--2--0-|-2-2-|--0--2--0--2--0--2------|
---1--3--3--1-|-3-3-|--1--3--1--3--1--3------|
---0--0--4--0-|-2-2-|--0--2--0--2--0--2------|
---2--0--4--2-|-0-0-|--2--0--2--0--2--0------|
---3--2--2--3-|-----|--3-----3-----3---------|
------3-------|-----|------------------------|
Kids alright, alright as they'll ever be
'Cause you will always be my
Well you will always by my
You will always be my sweet sixteen

---3-----2--|----0--0----------------|
---3-----3--|----1--1-----1----------|
---0-----2--|----0--0--0--0----------|
---0-----0--|----2--0--0--0----------|
---2-------------3--2--0--2----------|
---3----------------------3----------|
   |x6|     |x1|

Verse 2 :
---3~---2~---0~---2~-----|---2-2----|
---3~---3~---1~---3~-----|---3-3----|
---0~---4~---2~---2~-----|---2-2----|
---0~---4~---2~---0~-----|---0-0----|
---2~---2~---0~----------|----------|
---3~------------------x2|----------|
Sleep on the floor on cardboard
Stab out my heart like a dartboard

------3-----2-----0-----2---------|
------3-----3-----1--3--3---------|
------0--4--4--2--2--2--2---------|
---0--0--4--4--2--2--0--0---------|
---2--2--2--2--0--0--0------------|
---3--3---------------------------|x2
Brown-skinned girl, I had a dream about a long, long time now
From the Midwest to the beach

Chorus:
---0--3--2--3--0--2--3--0--3----|
---1--3--3--3--1--3--3--1--3----|
---0--0--4--0--0--2--0--0--0----|
---2--0--4--0--2--0--0--2--0----|
---3--2--2--2--3-----2--3--2----|
------3-----3--------3-----3----|
Old days are fine but are left so far behind
From California to Jane Street

---0--3--2--0-|-2-2-|--0--2--0--2--0--2------|
---1--3--3--1-|-3-3-|--1--3--1--3--1--3------|
---0--0--4--0-|-2-2-|--0--2--0--2--0--2------|
---2--0--4--2-|-0-0-|--2--0--2--0--2--0------|
---3--2--2--3-|-----|--3-----3-----3---------|
------3-------|-----|------------------------|
Kids alright, alright as they'll ever be
'Cause you will always be my
Well you will always by my
You will always be my sweet sixteen

---3-----2--|----0--0----------------|
---3-----3--|----1--1-----1----------|
---0-----2--|----0--0--0--0----------|
---0-----0--|----2--0--0--0----------|
---2-------------3--2--0--2----------|
---3----------------------3----------|
   |x6|   |x1|

Solo:
------------------------------------------------------------------------------|
---3/8~8-7-3~-3/1-1-0-1-1/3~--3/8~8-7-3~-3/1-1-0-1-1/3~-----------------------|
------------------------------------------------------------------------------|
------------------------------------------------------------------------------|
------------------------------------------------------------------------------|
------------------------------------------------------------------------------|

-----7---7---------------------------7-7-7--5-5--7-7-8-8-8--10----10------|
-3/8~8---8-7-3~-3/1-1-0-1-1/3~--3/8~8-8-8--8-8--8-8-8-8-8--7--7-7---------|
--------------------------------------------------------------------------|
--------------------------------------------------------------------------|
--------------------------------------------------------------------------|
--------------------------------------------------------------------------|

Chorus:
---0--3--2--3--0--2--3--0--3----|
---1--3--3--3--1--3--3--1--3----|
---0--0--4--0--0--2--0--0--0----|
---2--0--4--0--2--0--0--2--0----|
---3--2--2--2--3-----2--3--2----|
------3-----3--------3-----3----|
Old days are fine but are left so far behind
From California to Jane Street

---0--3--2--0-|-2-2-|--0--2--0--2--0--2----|
---1--3--3--1-|-3-3-|--1--3--1--3--1--3----|
---0--0--4--0-|-2-2-|--0--2--0--2--0--2----|
---2--0--4--2-|-0-0-|--2--0--2--0--2--0----|
---3--2--2--3-|-----|--3-----3-----3-------|
------3-------|-----|----------------------|
Kids alright, alright as they'll ever be
'Cause you will always be my
Well you will always by my
You will always be my sweet sixteen

Outro:
---3-----2--|----0--0----------3----|
---3-----3--|----1--1-----1----3----|
---0-----2--|----0--0--0--0----0----|
---0-----0--|----2--0--0--0----0----|
---2-------------3--2--0--2----2----|
---3----------------------3----3----|
   |x6|   |x1|
Tap to rate this tab
# A B C D E F G H I J K L M N O P Q R S T U V W X Y Z