Song name
# A B C D E F G H I J K L M N O P Q R S T U V W X Y Z

Green Day - Missing You tab

Intro

   A5|E5|D5    F#5 D5|E5|A5
E|-------------------------|
B|-------------------------|
G|----9--7-----11--7--9----|
D|-7--9--7-----11--7--9--7-|
A|-7--7--5-----9---5--7--7-|
E|-5---------------------5-|

Verse

   A5              C#5             D5      E5      A5
E|------------------------------------------------------------------|
B|------------------------------------------------------------------|
G|-----------------66666666666666667777777799999999-----------------|
D|-7777777777777777666666666666666677777777999999997777777777777777-|
A|-7777777777777777444444444444444455555555777777777777777777777777-|
E|-5555555555555555--------------------------------5555555555555555-|

Pre-chorus

   D5 A5   E5 A5      D5      E5 
E|------------------|------------------|
B|------------------|------------------|
G|-777-----999------|-7777777799999999-|
D|-7777777799977777-|-7777777799999999-|
A|-5557777777777777-|-5555555577777777-|
E|----55555---55555-|------------------|
  |________x3______| |________x1______|

Chorus

   A5      E5      D5              A5      C#5     D5            E5
E|-----------------------------------------------------------------0-|
B|-----------------------------------------------------------------0-|
G|---------999999997777777777777777--------666666667777777777777-990-|
D|-7777777799999999777777777777777777777777666666667777777777777-990-|
A|-7777777777777777555555555555555577777777444444445555555555555-770-|
E|-55555555------------------------55555555------------------------0-|

Solo rhythm

   A5|E5|D5        F#5|D5|E5|A5
E|------------------------------------|
B|------------------------------------|
G|----9--7--777777711--7--9-----------|
D|-7--9--7--777777711--7--9--77777777-|
A|-7--7--5--55555559---5--7--77777777-|
E|-5-------------------------55555555-|
Tap to rate this tab
# A B C D E F G H I J K L M N O P Q R S T U V W X Y Z