Guitaretab - guitar tabs
Song name
# A B C D E F G H I J K L M N O P Q R S T U V W X Y Z

Green Day - Strangeland tab

-------------------------------------------------------------------------------
			     STRANGELAND SOLO-Green Day
-------------------------------------------------------------------------------
Tabbed by: Thedboy

| /  slide up
| \  slide down
| h  hammer-on
| p  pull-off
| ~  vibrato
| +  harmonic
| x  Mute note
| s  stop chord immediately after youve played it.

Tuning: Down half a step

I downloaded a tab for the whole kerplunk album, which had the solos for Strangeland, 
Best thing in Town and My Generation, so here is Strangeland.

e----2--2-----2-------0-----0-2-2-----3-3-2--0-0------2---3------0------------|
B3~-3--3--------0------3-----3-3-3-3-----3--3---3------3---3-----------------|
G-2~-2--2--2-------2------2---2-2------------------2----------2---------------| 
D----0--0---------------------0-0---------------------------------------------|
A-----------------------------------------------------------------------------|
E-----------------------------------------------------------------------------|
[ Tab from: http://www.guitaretab.com/g/green-day/7437.html ]
e----------------------------2----0---2-0-2-0-2-0-2-2-3-2-0-0h2-2-2-3-3-3-2---|
B------------------------3~------------------------------------0-3-3-3-3-3---|
G-------------------------2~---2----2-----------------------------------------|
D-7-x-7-7-777-7-x-7-7-777-----------------------------------------------------|
A-7-x-7-7-777-7-x-7-7-777-----------------------------------------------------|
E-5-x-5-5-555-5-x-5-5-555-----------------------------------------------------|
  
e-15-15-15-15-15-15----------------------------------------------------------|
B16-14-14-14-14-14----------------------------------------------------------|
G-15-15-15-15-15-15----------------------------------------------------------|
D----------------------------------------------------------------------------|
A----------------------------------------------------------------------------|
E----------------------------------------------------------------------------|
==============================================================================================
Related for Strangeland tab
Strangeland chords by Green Day