Guitaretab - guitar tabs
Song name
# A B C D E F G H I J K L M N O P Q R S T U V W X Y Z

Green Day - Sweet Children tab

-------------------------------------------------------------------------------
			     SWEET CHILDREN  Green Day
-------------------------------------------------------------------------------
Tabbed by: Thedboy

Tuning: Down Half a step

| /  slide up
| \  slide down
| h  hammer-on
| p  pull-off
| ~  vibrato
| +  harmonic
| x  Mute note


[ Tab from: http://www.guitaretab.com/g/green-day/7440.html ]
Riff 1: (intro/Verse)
e----------------------------------------------------------------------------------|
B----------------------------------------------------------------------------------|
G-999999-----7777------------------------------------------------------------------|
D-999999-777-7777------------------------------------------------------------------|
A-777777-777-5555------------------------------------------------------------------|
E--------555-----------------------------------------------------------------------|
  
Riff 2: (Chorus)
e-00-000--------------------------------------------------------------------|
B00-000-33-----------------------------------------------------------------|
G-11-111-222222------------------------------------------------------------|
D-22-222-00-2222------------------------------------------------------------|
A-22-222----0000------------------------------------------------------------|
E-00-000--------------------------------------------------------------------|
  
Riff 3: (Bridge)
e--------------------------------------------------------------------------|
B---------3-3--------------------------------------------------------------|
G-4-4-444-2-2-2222---------------------------------------------------------| 
D-4-4-444-0-0-2222---------------------------------------------------------|
A-2-2-222-----0000---------------------------------------------------------|
E--------------------------------------------------------------------------|
  
Order:
Riff 1 x 12
Riff 2 x 4
Riff 1 x 10
Riff 2 x 4
Riff 3 x 4
Riff 2 x 3

End on:

e-00-000--------------------------------------------------------------------|
B00-000-33-----------------------------------------------------------------|
G-11-111-222~~~---2s-------------------------------------------------------|
D-22-222-00-2~~~---2s-------------------------------------------------------|
A-22-222----0~~~---0s-------------------------------------------------------|
E-00-000--------------------------------------------------------------------|

Lyrics:
Verse:
Sweet young girl so soft and blonde.
does exactly what she's been warned.
Intoxication's in her veins.
Sweet young boy plays with her brain.
believing all his faith that lies
Putting his hands onto her thighs.
impurity has now been gripped. 
He takes away her innocence 

Sweet children, sweet children, sweet children.
Remember when. 

Johnny Ray is running again, as he hit the floor again
Running from the light of day, or maybe lie and celebrate.
the slightest urge goes from his hands.
Follow me if you understand.
he's got the trigger on his gun 
Final sin and now he runs 

Sweet children, sweet children, sweet children. Remember when.
Sweet children, sweet children, sweet children. will never win. 

==============================================================================================
Related for Sweet Children tab