Song name
# A B C D E F G H I J K L M N O P Q R S T U V W X Y Z

Green Day - Westbound Sign tab

Tabbed by: Sam Champness
Email:
Song: Westbound Sign
Tuning:Half step Down

Intro <*x2*> Chorus
e|-------------------------------------------------------|
B|-------------------------------------------------------|
G|-------------------9-9-9-9---------------------9-9-9-9-|
D|-9-9-9-9--6-6-6-6--9-9-9-9---9-9-9-9--6-6-6-6--9-9-9-9-|
A|-9-9-9-9--6-6-6-6--7-7-7-7---9-9-9-9--6-6-6-6--7-7-7-7-|
E|-7-7-7-7--4-4-4-4------------7-7-7-7--4-4-4-4----------|

Verse <*x2*>
e|------------------------------------------------------------------------|
B|------------------------------------------------------------------------|
G|------------------------------------------------------------------------|
D|-9-9-9-9--4-4-4-4--6-6-6-6--2-2-2-2--9-9-9-9--4-4-4-4--6-6-6-6--2-2-2-2-|
A|-9-9-9-9--4-4-4-4--6-6-6-6--2-2-2-2--9-9-9-9--4-4-4-4--6-6-6-6--2-2-2-2-|
E|-7-7-7-7--2-2-2-2--4-4-4-4--0-0-0-0--7-7-7-7--2-2-2-2--4-4-4-4--0-0-0-0-|

Bridge
e|---------------------------------------|---------------------------------|
B|---------------------------------------|---------------------------------|
G|---------------------------------------|---------------------------------|
D|-4-4-4-4--7-7-7-7--2-2-2-2--9-9-9-9----|-4-4-4-4--7-7-7-7--2-2-2-2-2-2-2-|
A|-4-4-4-4--7-7-7-7--2-2-2-2--9-9-9-9----|-4-4-4-4--7-7-7-7--2-2-2-2-2-2-2-|
E|-2-2-2-2--5-5-5-5--0-0-0-0--7-7-7-7-x3-|-2-2-2-2--5-5-5-5--0-0-0-0-0-0-0-|

Verse <*Whith No Singing*>  <*x4*>
e|------------------------------------|
B|------------------------------------|
G|------------------------------------|
D|-9-9-9-9--4-4-4-4--6-6-6-6--2-2-2-2-|
A|-9-9-9-9--4-4-4-4--6-6-6-6--2-2-2-2-|
E|-7-7-7-7--2-2-2-2--4-4-4-4--0-0-0-0-|

Outro
e|------------------------------------------------------->|---|
B|------------------------------------------------------->|---|
G|-------------------9-9-9-9---------------------9-9-9-9->|---|
D|-9-9-9-9--6-6-6-6--9-9-9-9---9-9-9-9--6-6-6-6--9-9-9-9->|-9-|
A|-9-9-9-9--6-6-6-6--7-7-7-7---9-9-9-9--6-6-6-6--7-7-7-7->|-9-|
E|-7-7-7-7--4-4-4-4------------7-7-7-7--4-4-4-4---------->|-7-|

THATS IT! BRILLIANT SONG TO PLAY!! HAVE FUN AND DONT FORGET TO RATE IT!!

| /  slide up
| \  slide down
| h  hammer-on
| p  pull-off
| ~  vibrato
| +  harmonic
| x  Mute note
============================================================================
Tap to rate this tab
# A B C D E F G H I J K L M N O P Q R S T U V W X Y Z