Song name
# A B C D E F G H I J K L M N O P Q R S T U V W X Y Z

Green Day - When I Come Around tab

When I Come Around
Tuning: Standard
Album: Dookie, International Superhits
Time: 2:57
for questions or comments email stratacaster_master@hotmail.com
LEAVE COMMENTS!

 Guitar 1-distorted-half step down (E flat, A flat, D flat, G flat, B flat, E flat)
 Guitar 2-distorted-half step down (E flat, A flat, D flat, G flat, B flat, E flat)

Update: February 11, 2007-Ok after trying out a few things I’m updating to make this
correct.

Update: August 6, 2007 fixing a lot of shit

Notes: In the recording, lots of distortion is used, you can hear little slides between
chords, so use a lot but dont over do it, dont go w/ insane overdrive or anything but
a little more than a lil "crunch". Live there is only 1 guitar and that is billie and 
so rhythm w/ the solo which i think sounds better.

Intro:
|----------------------------------|------------------------------|
|--------------------------8-------|----------------------8-------|
|--0x---------------7------9--5~-5-|---------------7------9--5~-5-|
|--0x-----5-----7-7-7-77-9-9--5~-5-|-5---5-----7-7-7-77-9-9--5~-5-|
|-----5-5-5-55--5-5-5-55-7-7--3~-3-|-5-5-5-55--5-5-5-55-7-7--3~-3-|
|-----3-3-3-33---------------------|-3-3-3-33---------------------|
PM    x x   xx  x x   xx x             x   xx  x x   xx x

|------------------------------|
|----------------------8-------|
|---------------7------9--5~-5-|
|-----5-----7-7-7-77-9-9--5~-5-|
|-5-5-5-55--5-5-5-55-7-7--3~-3-|
|-3-3-3-33---------------------|
PMx x   xx  x x   xx x

Verse:
|------------------------------|------------------------------|
|----------------------8-------|----------------------8-------|
|---------------7------9--5~-5-|---------------7------9--5~-5-|
|-----5-----7-7-7-77-9-9--5~-5-|-----5-----7-7-7-77-9-9--5~-5-|
|-5-5-5-55--5-5-5-55-7-7--3~-3-|-5-5-5-55--5-5-5-55-7-7--3~-3-|
|-3-3-3-33---------------------|-3-3-3-33---------------------|
PMx x   xx  x x   xx x           x x   xx  x x   xx x

|------------------------------|------------------------------|
|----------------------8-------|----------------------8-------|
|---------------7------9--5~-5-|---------------7------9--5~-5-|
|-----5-----7-7-7-77-9-9--5~-5-|-----5-----7-7-7-77-9-9--5~-5-|
|-5-5-5-55--5-5-5-55-7-7--3~-3-|-5-5-5-55--5-5-5-55-7-7--3~-3-|
|-3-3-3-33---------------------|-3-3-3-33---------------------|
PMx x   xx  x x   xx x           x x   xx  x x   xx x

|------------------------------|------------------------------|
|----------------------8-------|----------------------8-------|
|---------------7------9--5~-5-|---------------7------9--5~-5-|
|-----5-----7-7-7-77-9-9--5~-5-|-----5-----7-7-7-77-9-9--5~-5-|
|-5-5-5-55--5-5-5-55-7-7--3~-3-|-5-5-5-55--5-5-5-55-7-7--3~-3-|
|-3-3-3-33---------------------|-3-3-3-33---------------------|
PMx x   xx  x x   xx x           x x   xx  x x   xx x

|------------------------------|-------------------------------|
|----------------------8-------|----------------------8-----5/-|
|---------------7------9--5~-5-|---------------7------9--5~-5/-|
|-----5-----7-7-7-77-9-9--5~-5-|-----5-----7-7-7-77-9-9--5~-5/-|
|-5-5-5-55--5-5-5-55-7-7--3~-3-|-5-5-5-55--5-5-5-55-7-7--3~-3/-|
|-3-3-3-33---------------------|-3-3-3-33----------------------|
PMx x   xx  x x   xx x           x x   xx  x x   xx x

“heard you crying loud,
all the way across town
You've been searching for that someone,
and it's me out on the prowl
As you sit around feeling sorry for yourself
Don't get lonely now
Dry your whining eyes
I'm just roaming for the moment
Sleazin' my back yard so don't get so uptight
You been thinking about ditching me”

Chorus:
|-----------------------------|-----------------------------|
|-----------------------------|-----------------------------|
|-2-2-2-2-2-2-2-2-2-2-2-2-2-2-|-5-5-5-5-5-5-5-5-5-5-5-5-5-5-|
|-2-2-2-2-2-2-2-2-2-2-2-2-2-2-|-5-5-5-5-5-5-5-5-5-5-5-5-5-5-|
|-0-0-0-0-0-0-0-0-0-0-0-0-0-0-|-3-3-3-3-3-3-3-3-3-3-3-3-3-3-|
|-----------------------------|-----------------------------|

|-----------------------------|-------------|
|-----------------------------|-------------|
|-2-2-2-2-2-2-2-2-2-2-2-2-2-2-|-5-5-5-5-5-5-|
|-2-2-2-2-2-2-2-2-2-2-2-2-2-2-|-5-5-5-5-5-5-|
|-0-0-0-0-0-0-0-0-0-0-0-0-0-0-|-3-3-3-3-3-3-|
|-----------------------------|-------------|

“No time to search the world around
Cause you know where I'll be found
When I come around”

Interlude
|------------------------------|------------------------------|
|----------------------8-------|----------------------8-------|
|---------------7------9--5~-5-|---------------7------9--5~-5-|
|-5---5-----7-7-7-77-9-9--5~-5-|-----5-----7-7-7-77-9-9--5~-5-|
|-5-5-5-55--5-5-5-55-7-7--3~-3-|-5-5-5-55--5-5-5-55-7-7--3~-3-|
|-3-3-3-33---------------------|-3-3-3-33---------------------|
PM  x   xx  x x   xx x           x x   xx  x x   xx x


Verse:
|------------------------------|------------------------------|
|----------------------8-------|----------------------8-------|
|---------------7------9--5~-5-|---------------7------9--5~-5-|
|-----5-----7-7-7-77-9-9--5~-5-|-----5-----7-7-7-77-9-9--5~-5-|
|-5-5-5-55--5-5-5-55-7-7--3~-3-|-5-5-5-55--5-5-5-55-7-7--3~-3-|
|-3-3-3-33---------------------|-3-3-3-33---------------------|
PMx x   xx  x x   xx x           x x   xx  x x   xx x

|------------------------------|------------------------------|
|----------------------8-------|----------------------8-------|
|---------------7------9--5~-5-|---------------7------9--5~-5-|
|-----5-----7-7-7-77-9-9--5~-5-|-----5-----7-7-7-77-9-9--5~-5-|
|-5-5-5-55--5-5-5-55-7-7--3~-3-|-5-5-5-55--5-5-5-55-7-7--3~-3-|
|-3-3-3-33---------------------|-3-3-3-33---------------------|
PMx x   xx  x x   xx x           x x   xx  x x   xx x

|------------------------------|------------------------------|
|----------------------8-------|----------------------8-------|
|---------------7------9--5~-5-|---------------7------9--5~-5-|
|-----5-----7-7-7-77-9-9--5~-5-|-----5-----7-7-7-77-9-9--5~-5-|
|-5-5-5-55--5-5-5-55-7-7--3~-3-|-5-5-5-55--5-5-5-55-7-7--3~-3-|
|-3-3-3-33---------------------|-3-3-3-33---------------------|
PMx x   xx  x x   xx x           x x   xx  x x   xx x

|------------------------------|-------------------------------|
|----------------------8-------|----------------------8-----5/-|
|---------------7------9--5~-5-|---------------7------9--5~-5/-|
|-----5-----7-7-7-77-9-9--5~-5-|-----5-----7-7-7-77-9-9--5~-5/-|
|-5-5-5-55--5-5-5-55-7-7--3~-3-|-5-5-5-55--5-5-5-55-7-7--3~-3/-|
|-3-3-3-33---------------------|-3-3-3-33----------------------|
PMx x   xx  x x   xx x           x x   xx  x x   xx x

“I heard it all before
So don't knock down my door
I'm a loser and a user so I don't need no accuser
to try and slag me down because I know you're right
So go do what you like
Make sure you do it wise
You may find out that your selfdoubt means nothing
Was ever there
You can't go forcing something if it's just
Not right”


Chorus:
|-----------------------------|-----------------------------|
|-----------------------------|-----------------------------|
|-2-2-2-2-2-2-2-2-2-2-2-2-2-2-|-5-5-5-5-5-5-5-5-5-5-5-5-5-5-|
|-2-2-2-2-2-2-2-2-2-2-2-2-2-2-|-5-5-5-5-5-5-5-5-5-5-5-5-5-5-|
|-0-0-0-0-0-0-0-0-0-0-0-0-0-0-|-3-3-3-3-3-3-3-3-3-3-3-3-3-3-|
|-----------------------------|-----------------------------|

|-----------------------------|-------------|
|-----------------------------|-------------|
|-2-2-2-2-2-2-2-2-2-2-2-2-2-2-|-5-5-5-5-5-5-|
|-2-2-2-2-2-2-2-2-2-2-2-2-2-2-|-5-5-5-5-5-5-|
|-0-0-0-0-0-0-0-0-0-0-0-0-0-0-|-3-3-3-3-3-3-|
|-----------------------------|-------------|

“No time to search the world around
Cause you know where I'll be found
When I come around”

Interlude
|------------------------------|------------------------------|
|----------------------8-------|----------------------8-------|
|---------------7------9--5~-5-|---------------7------9--5~-5-|
|-----5-----7-7-7-77-9-9--5~-5-|-----5-----7-7-7-77-9-9--5~-5-|
|-5-5-5-55--5-5-5-55-7-7--3~-3-|-5-5-5-55--5-5-5-55-7-7--3~-3-|
|-3-3-3-33---------------------|-3-3-3-33---------------------|
PMx x   xx  x x   xx x           x x   xx  x x   xx x


Solo:
Guitar 2:
|-3---------5--------3-3---5-333|--3-3-3--5-5-5--3-3-3-------------|
|---3---3-----3---3--3-3---3-333|--3-3-3--3-3-3--3-3-3-5-5-5--5/---|
|-----0---------0----0-0---0-000|--0-0-0--0-0-0--0-0-0-4-4-4--5/---|
|-------------------------------|----------------------------------|
|-------------------------------|----------------------------------|
|-------------------------------|------------------------------12/-|
Guitar 1                                                           |
|-------------------------------|----------------------------------|
|-------------------------------|----------------------------------|
|---------------7------99--5--5~|----------------7-------99--5--5~-|
|-----5-----7-7-7-77-9-99--5--5~|------5-----7-7-7-77--9-99--5--5~-|
|-5-5-5-55--5-5-5-55-7-77--3--3~|-5-5--5-55--5-5-5-55--7-77--3--3~-|
|-3-3-3-33----------------------|-3-3--3-33------------------------|
PMx x x    x x x   x              x x    xx  x x   xx


Chorus:
|-----------------------------|-----------------------------|
|-----------------------------|-----------------------------|
|-2-2-2-2-2-2-2-2-2-2-2-2-2-2-|-5-5-5-5-5-5-5-5-5-5-5-5-5-5-|
|-2-2-2-2-2-2-2-2-2-2-2-2-2-2-|-5-5-5-5-5-5-5-5-5-5-5-5-5-5-|
|-0-0-0-0-0-0-0-0-0-0-0-0-0-0-|-3-3-3-3-3-3-3-3-3-3-3-3-3-3-|
|-----------------------------|-----------------------------|

|-----------------------------|------|
|-----------------------------|------|
|-2-2-2-2-2-2-2-2-2-2-2-2-2-2-|-5~-5-|
|-2-2-2-2-2-2-2-2-2-2-2-2-2-2-|-5~-5-|
|-0-0-0-0-0-0-0-0-0-0-0-0-0-0-|-3~-3-|
|-----------------------------|------|
“No time to search the world around
Cause you know where I'll be found
When I come around”

Outro:
|------------------------------|------------------------------|
|----------------------8-------|----------------------8-------|
|---------------7------9--5~-5-|---------------7------9--5~-5-|
|---5-5-----7-7-7-77-9-9--5~-5-|-----5-----7-7-7-77-9-9--5~-5-|
|-5-5-5-55--5-5-5-55-7-7--3~-3-|-5-5-5-55--5-5-5-55-7-7--3~-3-|
|-3-3-3-33---------------------|-3-3-3-33---------------------|
PM  x   xx  x x   xx x           x x   xx  x x   xx x

|------------------------------|--------------------------------|
|----------------------8-------|----------------------8---------|
|---------------7------9--5~-5-|---------------7------9--5~-5~~-|
|-----5-----7-7-7-77-9-9--5~-5-|-----5-----7-7-7-77-9-9--5~-5~~-|
|-5-5-5-55--5-5-5-55-7-7--3~-3-|-5-5-5-55--5-5-5-55-7-7--3~-3~~-|
|-3-3-3-33---------------------|-3-3-3-33-----------------------|
PMx x   xx  x x   xx x           x x   xx  x x   xx x
Tap to rate this tab
 
# A B C D E F G H I J K L M N O P Q R S T U V W X Y Z