Song name
# A B C D E F G H I J K L M N O P Q R S T U V W X Y Z

Greg Howe - Portrait tab

  Q=75
  Gadd9           Cadd9         Gadd9           Cadd9
 4/4
  Gtr I
  S S S S S S S S E S S S S E   S S S S S S S S E S S S S E
|-----------------------------|-----------------------------|
|-----------0-----3---1---0---|-----------0-----3---1---0---|
|-----0h2-----2p0---0-------0-|-----0h2-----2p0---0-------0-|
|---0-------------------------|---0-------------------------|
|-----------------3-----3-----|-----------------3-----3-----|
|-3-------3-------------------|-3-------3-------------------|


  Gadd9           Cadd9         G6    G     Am7   G
  S S S S S S S S E S S S S E   E S S S S E E S S S S E
|-----------------------------|--------------------------|
|-----------0-----3---1---0---|-3-------3---1-------0----|
|-----0h2-----2p0---0-------0-|-----0-----------0-----0--|
|---0-------------------------|---2-------0---2----------|
|-----------------3-----3-----|-------------0------------|
|-3-------3-------------------|-3-----3-----------3------|


  D             C                 Gadd9
  E S S S S S S S S S S S S S S   E S S S S S S S S S S S S S S
|-------------------------------|--------------------------------|
|-----3---------------0---------|--------------------------------|
|-2-------2---2---0h2-----2p0---|-0-------0-------0-------0------|
|---0-------0-------------------|---0h2-----0h2-----0h2-----0h2--|
|---------------3-------3-----3-|--------------------------------|
|-2-----2-----------------------|-3-----3-------3-------3--------|


                                  G           Am7
  E S S S S S S S S S S S S S S   E S S S S E E S S S S E
|-------------------------------|-3-----------0-----------|
|-0-----------------------------|---------3---1-------3---|
|---------0-------0-------0-----|-----0-----------0-------|
|---0h2-----0h2-----0h2-----0h2-|---0-------0---2-------0-|
|-------------------------------|-------------0-----------|
|-3-----3-------3-------3-------|-3-----3-----------3-----|


  D             C               Bm7           Cm7
  E S S S S S S S S S S S S E   E S S S S S S S S S S S S S S
|-----------------------------|-------------------------------|
|-3-------------------0-------|-----3---------------1---------|
|-----2---2---2---0h2-----2p0-|-2-------2---2-----0-----0---0-|
|---0---0---0-----------------|---0-------0-----3---------3---|
|---------------3-------3-----|-2-----2-------1-------1-------|
|-2---------------------------|-------------------------------|


  Fm7           D               E             B7
  E S S S S S S S S S S S S E   E S S S S S S E S S S S E
|-----------------------------|---------0-----2-----------|
|-1-------1-----------3-------|-0-----------0---------0---|
|-----0-------0-----2-----2---|-----0-------------2-------|
|---3-------3-----0---------0-|---2-------2-----1-------1-|
|-0-----0---------------------|---------------2-----2-----|
|---------------2-------2-----|-0-----0-------------------|


  C               G               Cm7           Fm7
  S S S S S S S S E S S S S S S   S S S S S S E E S S S S E
|-------0-----------------------|-------0-------1-----------|
|-----------0-----3-------3-----|-----1-----1-----------1---|
|-----2-------2-------0-------0-|---0---------0-----0-------|
|---5-----------5---0-------0---|-----------------3-------3-|
|-3-------3-------2-----2-------|-1-------1-----0-----0-----|
|-------------------------------|---------------------------|


  A7                             Dm7           A7
  S S S S S S S S S S S S S E.   E S S S S S S S S S S S S E
|-------8---------------6------|-5-------------------8---6---|
|---------------8--------------|---------6-------------------|
|-----6-------6-------6-----6--|-----5-------5-----6---------|
|---5-------5-------5----------|---7-------7-----5---------5-|
|-0-------0-------0-------0----|-5-----5-------0-------0-----|
|------------------------------|-----------------------------|


  Dm7           A7              Dm7           Cm7
  E S S S S S S S S S S S S E   E S S S S S S E S S S S S S
|-5-------------------8---6---|-5-------------3-------------|
|---------6-------------------|---------6-------------3-----|
|-----5-------5-----6---------|-----5-------5-----5-------5-|
|---7-------7-----5---------5-|---7-------7-----5-------5---|
|-5-----5-------0-------0-----|-5-----5-------3-----3-------|
|-----------------------------|-----------------------------|


                Bbm7                          Cm7
  S S S S S S E E S S S S S S   S S S S S S E E S S S S S S
|-------3-------1-------------|-------1---------------------|
|-----------4-----------1-----|-----------2---4-------4-----|
|-----3-------3-----3-------3-|-----1-------1-----3-------3-|
|---6-------------3-------3---|---4-------------6-------6---|
|-3-------3-----1-----1-------|-1-------1-----3-----3-------|
|-----------------------------|-----------------------------|


  D9      D7      D9              Em9           Cadd9
  S S S S S S S S S S S S S S E   E S S S S S S E S S S S E
|-------5-----------------------|---------3-----------------|
|---------------3-------4-------|-3-----------3-3---1---0---|
|-----5-------5-------5-----5---|-----0-----------0-------0-|
|---4-------4-------4---------4-|---4-------4---------------|
|-5-------5-------5-------5-----|---------------3-----3-----|
|-------------------------------|-0-----0-------------------|


  Dm7           Em9             Cadd9         Am7     E       Am7add11D7
                                                             2/4
  S S S S S S E S S S S S S E   S S S S S S E S S S S S S E   S S S S S S E
|-------0-------------2-------|-------0---------------------|-------3-----2--|
|-----------3-------------3---|-----3-----3---1p0-----------|-----3-----1----|
|-----2-------2-----0-------0-|---0---------0-----0-----0---|---5------------|
|---0-------------4-----------|---------------------2-------|---------0------|
|-----------------------------|-3-------2-----0-----------2-|-0--------------|
|-2-------2-----0-------0-----|-----------------------0-----|----------------|


  Gadd9           Cadd9         Gadd9           Cadd9
 4/4
  S S S S S S S S E S S S S E   S S S S S S S S E S S S S E
|-3---------------------------|-----------------------------|
|-----------0-----3---1---0---|-----------0-----3---1---0---|
|-----0h2-----2p0---0-------0-|-----0h2-----2p0---0-------0-|
|---0-------------------------|---0-------------------------|
|-----------------3-----3-----|-----------------3-----3-----|
|-3-------3-------------------|-3-------3-------------------|


  Gadd9           Cadd9         G6    G     Am7   G
  S S S S S S S S E S S S S E   E S S S S E E S S S S E
|-----------------------------|--------------------------|
|-----------0-----3---1---0---|-3-------3---1-------0----|
|-----0h2-----2p0---0-------0-|-----0-----------0-----0--|
|---0-------------------------|---2-------0---2----------|
|-----------------3-----3-----|-------------0------------|
|-3-------3-------------------|-3-----3-----------3------|


  D             C                 Gadd9
  E S S S S S S S S S S S S S S   E S S S S S S S S S S S S S S
|-------------------------------|--------------------------------|
|-----3---------------0---------|--------------------------------|
|-2-------2---2---0h2-----2p0---|-0-------0-------0-------0------|
|---0-------0-------------------|---0h2-----0h2-----0h2-----0h2--|
|---------------3-------3-----3-|--------------------------------|
|-2-----2-----------------------|-3-----3-------3-------3--------|


                                  G           Am7
  E S S S S S S S S S S S S S S   E S S S S E E S S S S E
|-------------------------------|-3-----------0-----------|
|-0-----------------------------|---------3---1-------3---|
|---------0-------0-------0-----|-----0-----------0-------|
|---0h2-----0h2-----0h2-----0h2-|---0-------0---2-------0-|
|-------------------------------|-------------0-----------|
|-3-----3-------3-------3-------|-3-----3-----------3-----|


  D             C               Bm7           Cm7
  E S S S S S S S S S S S S E   E S S S S S S S S S S S S S S
|-----------------------------|-------------------------------|
|-3-------------------0-------|-----3---------------1---------|
|-----2---2---2---0h2-----2p0-|-2-------2---2-----0-----0---0-|
|---0---0---0-----------------|---0-------0-----3---------3---|
|---------------3-------3-----|-2-----2-------1-------1-------|
|-2---------------------------|-------------------------------|


  Fm7           D               E             B7
  E S S S S S S S S S S S S E   E S S S S S S E S S S S E
|-----------------------------|---------0-----2-----------|
|-1-------1-----------3-------|-0-----------0---------0---|
|-----0-------0-----2-----2---|-----0-------------2-------|
|---3-------3-----0---------0-|---2-------2-----1-------1-|
|-0-----0---------------------|---------------2-----2-----|
|---------------2-------2-----|-0-----0-------------------|


  C               G               Cm7           Fm7
  S S S S S S S S E S S S S S S   S S S S S S E E S S S S E
|-------0-----------------------|-------0-------1-----------|
|-----------0-----3-------3-----|-----1-----1-----------1---|
|-----2-------2-------0-------0-|---0---------0-----0-------|
|---5-----------5---0-------0---|-----------------3-------3-|
|-3-------3-------2-----2-------|-1-------1-----0-----0-----|
|-------------------------------|---------------------------|


  A7                             Dm7           A7
  S S S S S S S S S S S S S E.   E S S S S S S S S S S S S E
|-------8---------------6------|-5-------------------8---6---|
|---------------8--------------|---------6-------------------|
|-----6-------6-------6-----6--|-----5-------5-----6---------|
|---5-------5-------5----------|---7-------7-----5---------5-|
|-0-------0-------0-------0----|-5-----5-------0-------0-----|
|------------------------------|-----------------------------|


  Dm7           A7              Dm7           Cm7
  E S S S S S S S S S S S S E   E S S S S S S E S S S S S S
|-5-------------------8---6---|-5-------------3-------------|
|---------6-------------------|---------6-------------3-----|
|-----5-------5-----6---------|-----5-------5-----5-------5-|
|---7-------7-----5---------5-|---7-------7-----5-------5---|
|-5-----5-------0-------0-----|-5-----5-------3-----3-------|
|-----------------------------|-----------------------------|


                Bbm7                          Cm7
  S S S S S S E E S S S S S S   S S S S S S E E S S S S S S
|-------3-------1-------------|-------1---------------------|
|-----------4-----------1-----|-----------2---4-------4-----|
|-----3-------3-----3-------3-|-----1-------1-----3-------3-|
|---6-------------3-------3---|---4-------------6-------6---|
|-3-------3-----1-----1-------|-1-------1-----3-----3-------|
|-----------------------------|-----------------------------|


  D9      D7      D9              Em9           Cadd9
  S S S S S S S S S S S S S S E   E S S S S S S E S S S S E
|-------5-----------------------|---------3-----------------|
|---------------3-------4-------|-3-----------3-3---1---0---|
|-----5-------5-------5-----5---|-----0-----------0-------0-|
|---4-------4-------4---------4-|---4-------4---------------|
|-5-------5-------5-------5-----|---------------3-----3-----|
|-------------------------------|-0-----0-------------------|


  Dm7           Em9             Cadd9         Am7     E
  S S S S S S E S S S S S S E   S S S S S S E S S S S S S E
|-------0-------------2-------|-------0---------------------|
|-----------3-------------3---|-----3-----3---1p0-----------|
|-----2-------2-----0-------0-|---0---------0-----0-----0---|
|---0-------------4-----------|---------------------2-------|
|-----------------------------|-3-------2-----0-----------2-|
|-2-------2-----0-------0-----|-----------------------0-----|


  Cadd9         Am7     E       Cm7           Am7     E       Am7add11D7
                                                             2/4
  S S S S S S E S S S S S S E   S S S S S S E S S S S S S E   S S S S S S E
|-------0---------------------|-------3---------------------|-------3-----2--|
|-----3-----3---1p0-----------|-----3-----3---1p0-----------|-----3-----1----|
|---0---------0-----0-----0---|---0---------0-----0-----0---|---5------------|
|---------------------2-------|---------------------2-------|---------0------|
|-3-------2-----0-----------2-|-3-------2-----0-----------2-|-0--------------|
|-----------------------0---0-|-----------------------0-----|----------------|


  Cm7         G               A7            Ab
 4/4
  E S S S S E E S S S S S S   E S S S S S S E S S S S S S
|-3-----------3-------------|-3-------------3-------------|
|---------4---3-------3-----|-2-------2-------------3-----|
|-----3-----------0-------0-|-----0-------0-----5-------5-|
|---5-------5---0-------0---|---2-------2-----5-------5---|
|-3-----3-----2-----2-------|-0-----0---------------------|
|---------------------------|---------------4-----4-------|


  Gadd9           Cadd9         Gadd9           Cadd9
  S S S S S S S S E S S S S E   S S S S S S S S E S S S S E
|-----------------------------|-----------------------------|
|-----------0-----3---1---0---|-----------0-----3---1---0---|
|-----0h2-----2p0---0-------0-|-----0h2-----2p0---0-------0-|
|---0-------------------------|---0-------------------------|
|-----------------3-----3-----|-----------------3-----3-----|
|-3-------3-------------------|-3-------3-------------------|


  Gadd9           Cm7   G
        |-3-|     |-3-|
  S S S E E E E E E E E S
|-----------------3-------|
|-----------0-----------3-|
|-----0h2-----2p0-----0---|
|---0---------------0-----|
|-----------------3-----2-|
|-3-------3---------------|


               Bb6   A7sus4Ab
               |-3-| |-3-|
  +X  S. S +X  E E E E E E E E S   +S  Q  X Q  Q  E +T.
|--------------3-----3-----3-----|----------------------|
|-(3)----------------------------|-----3--3h4--3--------|
|--------0-(0)-----0-----0-----5-|-(5)------------5-(5)-|
|-----0----------0-----0-----5---|----------------------|
|-(2)----------1-----0-----------|----------------------|
|--------------------------4-----|----------------------|


  +S  +X  H.      E +T.   +S  +X  Q  Q  Q  E +T.   +H     H
|-----------------------|------------------2-(2)-|-(2)---------*|
|-----------------------|---------------0--------|-------------*|
|-(5)-(5)---------------|------------2-----------|-------------*|
|-----------------------|---------0--------------|-------------*|
|-----------------------|------------------------|-------------*|
|---------4-------3-(3)-|-(3)-(3)----------------|-------------*|


Duration Legend
---------------
W - whole; H - half; Q - quarter; E - 8th; S - 16th; T - 32nd; X - 64th; a - acciaccatura
+ - note tied to previous; . - note dotted; .. - note double dotted
Uncapitalized letters represent notes that are staccato (1/2 duration)
Irregular groupings are notated above the duration line
Duration letters will always appear directly above the note/fret number it represents the
duration for.  Duration letters with no fret number below them represent rests.  Multi-
bar rests are notated in the form Wxn, where n is the number of bars to rest for.  Low
melody durations appear below the staff

Tablature Legend
----------------
 h   - hammer-on
 p   - pull-off
 b   - bend
 pb  - pre-bend
 r   - bend release (if no number after the r, then release immediately)
 /\  - slide into or out of (from/to "nowhere")
 s   - legato slide
 S   - shift slide
 - natural harmonic
[n]  - artificial harmonic
n(n) - tapped harmonic
 ~   - vibrato
 tr  - trill
 T   - tap
 TP  - trem. picking
 PM  - palm muting
\n/  - tremolo bar dip; n = amount to dip
 \n  - tremolo bar down
 n/  - tremolo bar up
/n\  - 
Tap to rate this tab
# A B C D E F G H I J K L M N O P Q R S T U V W X Y Z