Song name
# A B C D E F G H I J K L M N O P Q R S T U V W X Y Z

Grey Holiday - Revolution tab

I have been looking for years to find this tab, so I finally got off my butt and 
made one myself. took a while, so be thankful!

/ = Slide Up To

Lead Guitar:

E||-----/7---------2----------------------------------|    
B||-----------2-----------2----2--2--3--2-------------|
G||---------------------------------------------------|
D||---------------------------------------------------|
A||---------------------------------------------------|
D||---------------------------------------------------|
                                                                  x2
|------7--------------------------------------------|
|-------------2---2---3---3----3--3----2--0---------|
|---------------------------------------------------|
|---------------------------------------------------|
|---------------------------------------------------|
|---------------------------------------------------|

Rhythm Guitar:


E||-------------------------------------------------|
B||-------------------------------------------------|
G||-------------------------------------------------|
D||-------------------------------------------------|
A||--3--3-----3--3--3-----3-----3-----3--3--3--3----|
D||--3--3-----3--3--3-----3-----3-----3--3--3--3----|

                                                                 x2
|-----------------------------------------------------||
|-----------------------------------------------------||
|-----------------------------------------------------||
|-----------------------------------------------------||
|--7--7-----7--7--7-----7-------7-----7--7--7--7------||
|--7--7-----7--7--7-----7-------7-----7--7--7--7------||
Tap to rate this tab
# A B C D E F G H I J K L M N O P Q R S T U V W X Y Z