Song name
# A B C D E F G H I J K L M N O P Q R S T U V W X Y Z

Grieg - The Hall Of The Mountain King tab

Help us improve GuitareTab! Take a short survey!
In The Hall Of The Moutain King (I Dovregubbens Hall) for bass or guitar

G|-----------------------------------------------------|
D|------------------------------------------2-0-------0|
A|--------0-2---2-1---1-0---0-------0-2---2-----2---2--|
E|--0-2-4-----3-----2-----1---0-2-4-----3---------3----|

G|-----------------------------------------------------|
D|--------0-2---2-1---1-0---0-------0-2---2-1---1-0----|
A|--0-2-4-----3-----2-----1---0-2-4-----3-----2--------|
E|-----------------------------------------------------|

I think it goes something like this.
Hope you will like it =)
Related for The Hall Of The Mountain King tab