Song name
# A B C D E F G H I J K L M N O P Q R S T U V W X Y Z

Grim Skunk - Insane tab

Band: Grim Skunk plays... Fatal Illness
Song: Insane
Album: If we had brain, we'd eat them
Tabbed By: FaTSkUnK

Verse
   X2
e|-----------|-----------------------|
B|-----------|-----------------------|
G|-7-9----10-|-7-7-7-7-7-7-7-9----10-|
D|-7-9-10-10-|-7-7-7-7-7-7-7-9-10-10-|
A|-5-7-10-8--|-5-5-5-5-5-5-5-7-10-8--|
E|-----8-----|-----------------8-----|

Chorus

e|----------------------------------|
B|----------------------------------|
G|-7-7-7--7--7-7-7------------------|
D|-7-7-7--7--7-7-7--5-5-5-5-7-7-7-7-|
A|-5-5-5--5--5-5-5--5-5-5-5-7-7-7-7-|
E|------------------3-3-3-3-5-5-5-5-|

- Verse
- Chorus X2

Ending

e|------------------------------------------------------------------|---|
B|------------------------------------------------------------------|---|
G|-7-7-7--7--7-7-7--------------------------------------------------|-7-|
D|-7-7-7--7--7-7-7--5-5-5-5-7-7-7-7-5-5-5-5-7-7-7-7-5-5-5-5-7-7-7-7-|-7-|
A|-5-5-5--5--5-5-5--5-5-5-5-7-7-7-7-5-5-5-5-7-7-7-7-5-5-5-5-7-7-7-7-|-5-|
E|------------------3-3-3-3-5-5-5-5-3-3-3-3-5-5-5-5-3-3-3-3-5-5-5-5-|---|
Tap to rate this tab
# A B C D E F G H I J K L M N O P Q R S T U V W X Y Z