Guitaretab - guitar tabs
Song name
# A B C D E F G H I J K L M N O P Q R S T U V W X Y Z

Grinspoon - What You Got tab

#----------------------------------PLEASE NOTE---------------------------------#
#This file is the author's own work and represents their interpretation of the #
#song. You may only use this file for private study, scholarship, or research. #
#------------------------------------------------------------------------------##

                                  WHAT YOU GOT
                            As recorded by Grinspoon
                    (From the 2007 Album ALIBIS & OTHER LIES)

Words and Music by Grinspoon
Transcribed by Mitchell Gardner

Gtr I (E A D G B E) - 'Gtr. I (Dist.)'
Gtr II (E A D G B E) - 'Gtr. I (Clean)'
Gtr III (E A D G B E) - 'Gtr. II (Dist.)'

 Verse I
  Q=130
  C#5      G#G5F#5   B5
 4/4
  Gtr I
  E E Q.   E E E   E E H.
|----------------|-----------||
|----------------|-----------||
|-6-6------------|-----------||
|-6-6------6-5-4-|---9-------||
|-4-4------6-5-4-|---9-------||
|----------4-3-2-|---7-------||


   Verse
    $
    C#5      G#G5F#5   B5  (E)
    Gtr I                  Gtr II
    E E Q.   E E E   E E E S  S   E  E E  E
||-----------------|------------------------|
||o----------------|-------9h10--10-10-9\---|
||--6-6------------|-------9-(9)--9--9-9\---|
||--6-6------6-5-4-|---9--------------------|
||o-4-4------6-5-4-|---9--------------------|
||-----------4-3-2-|---7--------------------|


  C#5      G#G5F#5   B5  E5  B5
  Gtr I
  E E Q.   E E E   E E E E E E Q    4x
|----------------|------------------||
|----------------|-----------------o||
|-6-6------------|-------9----------||
|-6-6------6-5-4-|---9---9---9------||
|-4-4------6-5-4-|---9---7---9-----o||
|----------4-3-2-|---7-------7------||


 Pre-Chorus
  F#5                           F5    E5                D#5
  E E E E E E E E   E E E E E E E E   E E E E E E E E   E E E E E E E E
|-----------------|-----------------|-----------------|------------------||
|-----------------|-----------------|-----------------|------------------||
|-----------------|-----------------|-----------------|-8-8-8-8-8-8-8-8--||
|-4-4-4-4-4-4-4-4-|-4-4-4-4-4-4-3-3-|-2-2-2-2-2-2-2-2-|-8-8-8-8-8-8-8-8--||
|-4-4-4-4-4-4-4-4-|-4-4-4-4-4-4-3-3-|-2-2-2-2-2-2-2-2-|-6-6-6-6-6-6-6-6--||
|-2-2-2-2-2-2-2-2-|-2-2-2-2-2-2-1-1-|-0-0-0-0-0-0-0-0-|------------------||


   Chorus
                                                                      D.S.
    C#5    E5       F#5      A5           A5                B5
    E E Q  E E Q     E  E Q   E  E Q   3x E E E E E E E E   E E E E E E E E
||----------------|--------------------||-----------------|-----------------||
||o---------------|-------------------o||-----------------|-----------------||
||--6-6----9-9----|-11-11----14-14-----||-----------------|-----------------||
||--6-6----9-9----|-11-11----14-14-----||-7-7-7-7-7-7-7-7-|-9-9-9-9-9-9-9-9-||
||o-4-4----7-7----|--9--9----12-12----o||-7-7-7-7-7-7-7-7-|-9-9-9-9-9-9-9-9-||
||----------------|--------------------||-5-5-5-5-5-5-5-5-|-7-7-7-7-7-7-7-7-||


 Guitar Solo
  C#5          G#5G5F#5                B5   (E)
                                            Gtr II
  E E   Q.      E E  E         E       E  E S  S   E  E  E   E
|--------------------------|-----------------------------------|
|--------------------------|----------------9h10--10-10--9\----|
|-6-6----------------------|----------------9-(9)--9--9--9\----|
|-6-6-----------6-5--4-----|-----------9-----------------------|
|-4-4-----------6-5--4-----|-----------9-----------------------|
|---------------4-3--2-----|-----------7-----------------------|
|
| Gtr III
|                                                     ~~~~~~~~~~
| Q     E  E E  E E  E        +S   +S  E  E E      E  E +E   E
|--------------------------|-----------------------------------|
|--------------------9-----|--(9)--(9)-------------------------|
|----------9---11---11b13==|=(11)r(11)-9-----------9--9-(9)----|
|-----/11------------------|-------------11-9---------------11-|
|--------------------------|-----------------------------------|
|--------------------------|-----------------------------------|


  C#5               G#G5F#5        B5   E5      B5
  Gtr I
    E  E Q.         E E E       E   E E  E   E  E  Q
|----------------------------|--------------------------|
|----------------------------|--------------------------|
|---6--6---------------------|-----------9--------------|
|---6--6------------6-5-4----|------9----9------9-------|
|---4--4------------6-5-4----|------9----7------9-------|
|-------------------4-3-2----|------7-----------7-------|
|
|~~~~~~
|  +Q.       +E   E E E E      +E   E E  E  +E  E  E E
|----------------------------|--------------------------|
|-------------------9---9----|-(9)----------------------|
|-------------------9---9b10-|-(9)-------------------9--|
|-(11)------(11)\------------|-----11-9-11-(11)-9-11----|
|----------------------------|--------------------------|
|----------------------------|--------------------------|


  C#5                  G#5  G5F#5       B5   (E)
                                             Gtr II
   E    E  Q.          E    E E      E   E E  S  S    E   E  E  E
|---------------------------------|-------------------------------|
|---------------------------------|-----------9h10---10--10--9\---|
|--6----6-------------------------|-----------9-(9)---9---9--9\---|
|--6----6--------------6----5-4---|------9------------------------|
|--4----4--------------6----5-4---|------9------------------------|
|----------------------4----3-2---|------7------------------------|
|
|  Q       Q      E    S  S E E     +E   E E  E      +E   E  E  E
|---------------------------------|-------------------------------|
|--9-------9------9---------------|-------------------------------|
|-11b13---11b13--11b13p9------8b9-|-(8)---------------------------|
|------------------------11-9-----|-----11-9-11-----(11)--9-------|
|---------------------------------|-------------------------11--9-|
|---------------------------------|-------------------------------|


  C#5               G#5G5F#5       B5   E5   B5
  Gtr I
  E  E  Q.           E E  E     E  E  E E  E E     Q
|---------------------------|----------------------------||
|---------------------------|----------------------------||
|-6--6----------------------|-----------9----------------||
|-6--6---------------6-5--4-|------9----9----9-----------||
|-4--4---------------6-5--4-|------9----7----9-----------||
|--------------------4-3--2-|------7---------7-----------||
|
| E  E  E  E    +E   E E  E    +E  E  E E  E E    +Q
|---------------------------|----------------------------||
|---------------------------|----------------9----(9)\---||
|----------9b10-(9)---------|----------------9b10-(9)\---||
|-------------------11-9-11-|-(11)-9-11-9-11-------------||
|-9-10-11-------------------|----------------------------||
|---------------------------|----------------------------||


 Pre-Chorus
  F#5                           F5    E5                D#5
  E E E E E E E E   E E E E E E E E   E E E E E E E E   E E E E E E E E
|-----------------|-----------------|-----------------|------------------|
|-----------------|-----------------|-----------------|------------------|
|-----------------|-----------------|-----------------|-8-8-8-8-8-8-8-8--|
|-4-4-4-4-4-4-4-4-|-4-4-4-4-4-4-3-3-|-2-2-2-2-2-2-2-2-|-8-8-8-8-8-8-8-8--|
|-4-4-4-4-4-4-4-4-|-4-4-4-4-4-4-3-3-|-2-2-2-2-2-2-2-2-|-6-6-6-6-6-6-6-6--|
|-2-2-2-2-2-2-2-2-|-2-2-2-2-2-2-1-1-|-0-0-0-0-0-0-0-0-|------------------|
[ Tab from: http://www.guitaretab.com/g/grinspoon/162566.html ]

  C#5    E5       F#5      A5
  E E Q  E E Q     E  E Q   E  E Q
|---------------|-------------------|
|---------------|-------------------|
|-6-6----9-9----|-11-11----14-14----|
|-6-6----9-9----|-11-11----14-14----|
|-4-4----7-7----|--9--9----12-12----|
|---------------|-------------------|
|
| Gtr III
| W                W
|---------------|-------------------|
|---------------|-------------------|
|---------------|-------------------|
|---------------|-------------------|
|---------------|-------------------|
|---------------|-------------------|


  C#5    E5       F#5         A5
  E E Q  E E Q     E   E Q     E  E Q
|---------------|-----------------------------||
|---------------|-----------------------------||
|-6-6----9-9----|-11--11------14-14-----------||
|-6-6----9-9----|-11--11------14-14-----------||
|-4-4----7-7----|--9---9------12-12-----------||
|---------------|-----------------------------||
|
| W                E   E E  E  E  E E  E
|---------------|-----------------------------||
|---------------|----------------------9------||
|---------------|--------9-----9----9-11b13r==||
|---------------|----/11---11----11-----------||
|---------------|-----------------------------||
|---------------|-----------------------------||


 Out-Chorus
  C#5       E5          F#5         A5
    E  E Q  E E Q        E   E Q     E  E Q
|---------------------|---------------------------|
|---------------------|---------------------------|
|---6--6----9-9-------|-11--11------14-14---------|
|---6--6----9-9-------|-11--11------14-14---------|
|---4--4----7-7-------|--9---9------12-12---------|
|---------------------|---------------------------|
|
|  +H.          E  E     E   E E  E  E  E E  E
|---------------------|---------------------------|
|--(9)----------------|----------------------9----|
|-(11)----------9-----|--------9-----9----9-11b13r|
|-----------------11\-|----/11---11----11---------|
|---------------------|---------------------------|
|---------------------|---------------------------|


  C#5       E5          F#5         A5
    E  E Q  E E Q        E   E Q     E  E Q
|---------------------|-----------------------------|
|---------------------|-----------------------------|
|---6--6----9-9-------|-11--11------14-14-----------|
|---6--6----9-9-------|-11--11------14-14-----------|
|---4--4----7-7-------|--9---9------12-12-----------|
|---------------------|-----------------------------|
|
|  +H.          E  E     E   E E  E  E  E E  E
|---------------------|-----------------------------|
|--(9)----------------|----------------------9------|
|-(11)----------9-----|--------9-----9----9-11b13r==|
|-----------------11\-|----/11---11----11-----------|
|---------------------|-----------------------------|
|---------------------|-----------------------------|


  C#5       E5          F#5         A5
    E  E Q  E E Q        E   E Q     E  E Q
|---------------------|----------------------------||
|---------------------|----------------------------||
|---6--6----9-9-------|-11--11------14-14----------||
|---6--6----9-9-------|-11--11------14-14----------||
|---4--4----7-7-------|--9---9------12-12----------||
|---------------------|----------------------------||
|
|  +H.          E  E     E   E E  E  E  E E  E
|---------------------|----------------------------||
|--(9)----------------|----------------------9-----||
|-(11)----------9-----|--------9-----9----9-11b13==||
|-----------------11\-|----/11---11----11----------||
|---------------------|----------------------------||
|---------------------|----------------------------||


 Outro
  F#5                              G#5
    E  E E E E E E E     E   E E E E E E E
|--------------------|---------------------|
|--------------------|---------------------|
|--------------------|---------------------|
|---4--4-4-4-4-4-4-4-|---4---4-4-4-6-6-6-6-|
|---4--4-4-4-4-4-4-4-|---4---4-4-4-6-6-6-6-|
|---2--2-2-2-2-2-2-2-|---2---2-2-2-4-4-4-4-|
|
|                        >
|  +W                   +W
|--------------------|---------------------|
|--(9)---------------|--(9)----------------|
|-(11)---------------|-(11)r---------------|
|--------------------|---------------------|
|--------------------|---------------------|
|--------------------|---------------------|


  A5                B5
  E E E E E E E E   E E E E E E E E
|-----------------|------------------|
|-----------------|------------------|
|-----------------|------------------|
|-7-7-7-7-7-7-7-7-|-9-9-9-9-9-9-9-9--|
|-7-7-7-7-7-7-7-7-|-9-9-9-9-9-9-9-9--|
|-5-5-5-5-5-5-5-5-|-7-7-7-7-7-7-7-7--|
|
| W                 W
|-----------------|------------------|
|-----------------|------------------|
|-----------------|------------------|
|-----------------|------------------|
|-----------------|------------------|
|-----------------|------------------|


    C#5      G#G5F#5   B5          C#5      G#G5F#5   B5  E5  B5
    E E Q.   E E E   E E H.        E E Q.   E E E   E E E E E E Q
||-----------------|-------------|----------------|-----------------||
||o----------------|-------------|----------------|----------------o||
||--6-6------------|-------------|-6-6------------|-------9---------||
||--6-6------6-5-4-|---9---------|-6-6------6-5-4-|---9---9---9-----||
||o-4-4------6-5-4-|---9---------|-4-4------6-5-4-|---9---7---9----o||
||-----------4-3-2-|---7---------|----------4-3-2-|---7-------7-----||


  C#5 N.C.
  E E H.        W
|-------------|------*|
|-------------|------*|
|-6-6---------|------*|
|-6-6---------|------*|
|-4-4---------|------*|
|-------------|------*|


Duration Legend
---------------
W - whole; H - half; Q - quarter; E - 8th; S - 16th; T - 32nd; X - 64th; a - acciaccatura
+ - note tied to previous; . - note dotted; .. - note double dotted
Uncapitalized letters represent notes that are staccato (1/2 duration)
Irregular groupings are notated above the duration line
Duration letters will always appear directly above the note/fret number it represents the
duration for.  Duration letters with no fret number below them represent rests.  Multi-
bar rests are notated in the form Wxn, where n is the number of bars to rest for.  Low
melody durations appear below the staff

Tablature Legend
----------------
 h   - hammer-on
 p   - pull-off
 b   - bend
 pb  - pre-bend
 r   - bend release (if no number after the r, then release immediately)
 /\  - slide into or out of (from/to "nowhere")
 s   - legato slide
 S   - shift slide
  - natural harmonic
[n]  - artificial harmonic
n(n) - tapped harmonic
 ~   - vibrato
 tr  - trill
 T   - tap
 TP  - trem. picking
 PM  - palm muting
\n/  - tremolo bar dip; n = amount to dip
 \n  - tremolo bar down
 n/  - tremolo bar up
/n\  - tremolo bar inverted dip
 =   - hold bend; also acts as connecting device for hammers/pulls
 <>  - volume swell (louder/softer)
 x   - on rhythm slash represents muted slash
 o   - on rhythm slash represents single note slash

Misc Legend
-----------
 |  - bar
||  - double bar
||o - repeat start
o|| - repeat end
*|  - double bar (ending)
 :  - bar (freetime)
 $  - Segno
 &  - Coda
Tempo markers -  = BPM(8/16=s8/s16), where s8 = swing 8ths, s16 = swing 16ths


***************************************************************************************
* Generated using Power Tab Editor by Brad Larsen - http://powertab.guitarnetwork.org *
***************************************************************************************
Related for What You Got tab