Song name
# A B C D E F G H I J K L M N O P Q R S T U V W X Y Z

Grinspoon - Busy tab

Artist: Grinspoon
Song: Busy
Album: Pushing Buttons (EP)

Drop D Tuning (low to high: D A D G B E)

Intro

|----------------------------------------|
|--8--8-----10-10----13--13------4--7----|
|--7--7-----9--9-----12--12------5--6----|
|--5--5-----7--7-----10--10-----0--4-----|
|--5--5-----7--7-----10--10-----0--4-----|
|--5--5-----7--7-----10--10--------4-----|


Chorus

|------|
|--13--|
|--12--|
|--10--|
|--10--|
|--10--|


|-------------------------------|
|-------------------------------|
|-------------------------------|
|--11-11--2-2----4-4-4-4-4-4-4--|
|--11-11--2-2----4-4-4-4-4-4-4--|
|--11-11--2-2----4-4-4-4-4-4-4--|
Tap to rate this tab
# A B C D E F G H I J K L M N O P Q R S T U V W X Y Z