Guitaretab - guitar tabs
Song name
# A B C D E F G H I J K L M N O P Q R S T U V W X Y Z

Groove Coverage - She tab

----------------------------------------------------------------------------
			     She - Sugarplum Fairy
----------------------------------------------------------------------------
Tabbed by: Yo1289
Email: yo1289@hotmail.com

Tuning: Standart

Intro: D5 (palm mute)

Ref 2:
D           A
Uh uh uh uh uh uh
Em7         G
Uh uh uh uh uh uh

Verse 1:
D              A  Bm                  F#m                 Em
She said be bold, you can manage what youíve been told to do
        A         Gm                             
So itís true that I can keep it all and spend it too
D                A    Bm                       F#m              Em
Iíll lend you a hand, you raise your voice and make a stand and I saw you 
A    Gm
Cry, I know theyíll die but so will you and I

Ref 1:
D          A             Em7         G
She said I know that the fire in my heart would show
D          A             Em7          G
She said I know that my fire for this world will grow

-Ref 2-
-Verse 2-
-Ref 1-
-Ref 2-

Bridge:

e|-----------------------------------------------|
B|-------7----------7----------7----------7------|
G|-----7----7-----7----7-----7----7-----7----7---|
D|--9----------8----------7----------6-----------|
A|-----------------------------------------------|
E|-----------------------------------------------|
[ Tab from: http://www.guitaretab.com/g/groove-coverage/136851.html ]
e|-----------------------------------------------|
B|-------7----------7----------7-----7--7--7--7--|
G|-----7----7-----7----7-----7----7--7--7--7--7--|
D|--9----------8----------7----------6--6--6--6--|
A|-----------------------------------------------|
E|-----------------------------------------------|


e|------------------------------------------------|
B|--9----9-----9----9-----9----9-----9----9-------|
G|--9----9-----9----9-----9----9-----9----9-------|
D|--11---11----10---10----9----9-----8----8-------|
A|------------------------------------------------|
E|------------------------------------------------|


e|------------------------------------------|
B|--9----9-----9----9-----9999999999999999--|
G|--9----9-----9----9-----9999999999999999--|
D|--11---11----10---10----9999999988888888--|
A|------------------------------------------|
E|------------------------------------------|

Ref 1: (x2)

E          B             F#m7       A
She said I know that the fire in my heart would show
E          B             F#m7         A
She said I know that my fire for this world will grow

Ref 2:
E           B
Uh uh uh uh uh uh
F#m7        A
Uh uh uh uh uh uh

| /  slide up
| \  slide down
| h  hammer-on
| p  pull-off
| ~  vibrato
| +  harmonic
| x  Mute note
============================================================================
Related for She tab