Song name
# A B C D E F G H I J K L M N O P Q R S T U V W X Y Z

Grouper - Living Room tab

Artist: Grouper https://myspace.com/grouperrepuorg
Album: The Man Who Died in His Boat (2013)
Song: Living Room

Tuning: Open D

Verse (I'm lookin' for the place...)
d|-----------------------------------------------------------------|
A|-----------------------------------------------------------------|
F#|----------------------------------------------------------------|
D|-----------0----------------0------------------------------------| (x3)
A|--------0-----0----------4-----4---------------------------------|
D|-----0----------------4------------------------------------------|

d|-----------------------------------------------------------------|
A|-----------------------------------------------------------------|
F#|----------------------------------------------------------------|
D|-----------0----------------0------------------------------------|
A|--------5-----5----------5-----5---------------------------------|
D|-----5----------------5------------------------------------------|


Chorus (And it's gettin' harder and harder to fake...)
d|-----------------------------------------------------------------|
A|-----------------------------------------------------------------|
F#|----------------------------------------------------------------|
D|-----------0----------------0------------------------------------| (x2)
A|--------2-----2----------4-----4---------------------------------|
D|-----2----------------4------------------------------------------|

d|-----------------------------------------------------------------|
A|-----------------------------------------------------------------|
F#|----------------------------------------------------------------|
D|-----------0----------------0----------------0------x2-----------| 
A|--------2-----2----------4-----4----------5-----5----------------|
D|-----2----------------4----------------5-------------------------|
Tap to rate this tab
# A B C D E F G H I J K L M N O P Q R S T U V W X Y Z