Song name
# A B C D E F G H I J K L M N O P Q R S T U V W X Y Z

Grupo Nectar - El Arbolito tab

INTRO:

e|----------------------------------------------------------|
b|---3-----------3---2---3------3-----------3---2-----------|
G|-4---4-2-4---4---2---4------4---4-2-4---4---2---4---------|
D|-----------4--------------------------4-------------------|
A|----------------------------------------------------------|
E|----------------------------------------------------------|

e|----------------------------------------------------------|
b|---3-----------3---2---3------3-----------3---2-----------|
G|-4---4-2-4---4---2---4------4---4-2-4---4---2---4---4-2-4-|
D|-----------4--------------------------4-------------------|
A|----------------------------------------------------------|
E|----------------------------------------------------------|


e|----------------------------------------------------------|  [x2]
b|-12/15-15-15-14-12--14/15-14-14-14-12-10---10h12-10-------|
G|----------------------------------------11----------------|
D|----------------------------------------------------------|
A|----------------------------------------------------------|
E|----------------------------------------------------------|

e|-----------------------------------------------------------|
b|-------10-12--------10-12-------10-------------------------|
G|-11-11--------11-11-------11-11----9-11-9-11-9-7/11--------|
A|-----------------------------------------------------------|
D|-----------------------------------------------------------|
E|-----------------------------------------------------------|


e|----------------------------------------------------------|
b|-------10-12--------10-12-------10------------------------|
G|-11-11--------11-11-------11-11----9-11-9-11-9-7-4--------|
A|----------------------------------------------------------|
D|----------------------------------------------------------|
E|----------------------------------------------------------|


Verse 1 and 2:   Bm  G  A  D

Chorus : D   A   Bm  [x3]
         A  Bm


es.wikipedia.org/wiki/N%C3%A9ctar_(banda)
Tap to rate this tab
# A B C D E F G H I J K L M N O P Q R S T U V W X Y Z