Song name
# A B C D E F G H I J K L M N O P Q R S T U V W X Y Z

Guano Apes - Plastic Mouth tab

Band - Guano Apes
Song - Plastic Mouth

Intro:
eb|-----------------------------------------------------|
bb|-----------------------------------------------------|
gb|-----------------------------------------------------|
Db|----8p7p5---777-----10p8p7---888---------------------|  X3
Ab|-----------------------------------------------------|
Db|-----------------------------------------------------|


eb|-------------------------------------------------|
bb|-------------------------------------------------|
gb|-------------------------------------------------|
Db|-----------5--5----------------------------------|
Ab|-----7--8--------7--8--8--7---5--55--------------|
Db|-------------------------------------------------|
    Intro X2

Bridge:
eb|-------------------------------------------------|
bb|-------------------------------------------------|
gb|-------------------------------------------------|
Db|------------------------------------7------------|
Ab|-----8p7p5---777-------10p8p7---88---------------|  X3
Db|-------------------------------------------------|

eb|-------------------------------------------------|
bb|-------------------------------------------------|
gb|-------------------------------------------------|
Db|-------------------------------------------------|
Ab|-------------------------------------------------|
Db|-----7-8-10--10p8p7--8----8p7p5---7--------------|


(Intro) X2
(Bridge)

Chorus:
    pm..............................................|
eb|-------------------------------------------------|
bb|-------------------------------------------------| play
gb|-------------------------------------------------| only
Db|-----0--5--0--3--2-------------------------------| first
Ab|-----0--5--0--3--2-------------------------------| time
Db|-----0--5--0--3--2-------------------------------|

eb|-------------------------------------------------|
bb|-------------------------------------------------|
gb|-------------------------------------------------|
Db|----0---1---8-------0---1---8--10----------------|
Ab|----0---1---8-------0---1---8--10----------------|
Db|----0---1---8-------0---1---8--10----------------|

eb|-------------------------------------------------|
bb|-------------------------------------------------|
gb|-------------------------------------------------|
Db|----0---1---8-----7---5---7---8------------------|
Ab|----0---1---8-----7---5---7---8------------------|
Db|----0---1---8-----7---5---7---8------------------|

(Chorus)

Onterlude:
eb|-------------------------------------------------|
bb|-------------------------------------------------|
gb|-------------------------------------------------|
Db|-----0~------------------------------------------|
Ab|-----0~     LET RING-----------------------------|
Db|-----0~------------------------------------------|

(Intro) X3
(Bridge)
(Chorus)

End:
eb|---------------------------------------------------|
bb|---------------------------------------------------|
gb|---------------------------------------------------|
Db|--0-%-0---1---8--7------0---1---8------------------|
Ab|--0-%-0---1---8--7------0---1---8------------------|
Db|--0-%-0---1---8--7------0---1---8------------------|


                       pm...........................|
eb|-------------------------------------------------|
bb|-------------------------------------------------|
gb|-------------------------------------------------|
Db|----0---1---8-----7878---0--5--0--3--2-----------|
Ab|----0---1---8-----7878---0--5--0--3--2-----------|
Db|----0---1---8-----7878---0--5--0--3--2-----------|
Tap to rate this tab
 
# A B C D E F G H I J K L M N O P Q R S T U V W X Y Z