Guitaretab - guitar tabs
Song name
# A B C D E F G H I J K L M N O P Q R S T U V W X Y Z

Guano Apes - Open Your Eyes tab

Band - Guano Apes		
Song - Open Your Eyes

Intro:

Guitar 1:
|---------------------------------------|
|---------------------------------------|
|-----4--4--5--5-----5-----7--7--9--9---|
|--2--4--4--5--5-----5-----7--7--9--9---| x4
|--2--2--2--3--3-----3-----5--5--7--7---|
|--0------------------------------------|

Guitar 2:
|---------------------------------------|
|---7------8------7------8------7-8-----|
|---------------------------------------|
|---------------------------------------|
|---------------------------------------|
|---------------------------------------|

|---------------------------------------|
|---7------8------7------8------7-------|
|---------------------------------7-----|
|---------------------------------------|
|---------------------------------------|
|---------------------------------------|

|---------------------------------------|
|-----3--3--5--5-----5-----7--7--8--8---|
|--2------------------------------------|
|---------------------------------------|
|---------------------------------------|
|---------------------------------------|

|---------------------------------------|
|-----3--3--5--5-----5-----7--7--8--8---|
|--2------------------------------------|
|---------------------------------------|
|---------------------------------------|
|---------------------------------------|


[ Tab from: http://www.guitaretab.com/g/guano-apes/7529.html ]
Verse:
Guitar 1:
|-x-x-x-x-x-x-|
|-x-x-x-x-x-x-|
|-x-x-x-x-x-x-|
|-2-2-2-2-2-2-|
|-2-2-2-2-2-2-|
|-x-x-x-x-x-x-|

Guitar 2:
|----------------|
|----------------|
|----------------|
|-2~~~-----------|
|-2~~~-----------|
|-0~~~-----------|

End bit:
|-----------|
|-----------|
|--9--------|
|--9--5--2--|
|--7--5--2--|
|-----3--0--|

Chorus (same as Intro):
|---------------------------------------|
|---------------------------------------|
|-----4--4--5--5-----5-----7--7--9--9---|
|--2--4--4--5--5-----5-----7--7--9--9---| x4
|--2--2--2--3--3-----3-----5--5--7--7---|
|--0------------------------------------|

Verse 2
Chorus

Solo:
Guitar 1:
|--------------------------------------|
|--------------------------------------|
|--------------------------------------|
|--2--2-----2--2-----2--2-----2--2-----| x3
|--2--2-----2--2-----2--2-----2--2-----|
|--0--0-----0--0-----0--0-----0--2-----|

|--------------------------------------|
|--------------------------------------|
|-----------------------------9--------|
|--2--2-----2--2-----2--2-----9--5--2--| 
|--2--2-----2--2-----2--2-----7--5--2--|
|--0--0-----0--0-----0--0--------3--0--|


Guitar 2:
|---------------------------|
|---7----8----7----8----7---|
|-------------------------7-|
|---------------------------|
|---------------------------|
|---------------------------|

Chorus: x2

End:
|--------------------------|
|--------------------------|
|--------------------------|
|--2--2-----2--2-----2--2--|
|--2--2-----2--2-----2--2--|
|--0--0-----0--0-----0--0--|
Related for Open Your Eyes tab
Advertisement will be closed in 10 seconds