Song name
# A B C D E F G H I J K L M N O P Q R S T U V W X Y Z

Guasones - Buenos Aires chords

Highlighted       Show chord diagrams
Intro
e--------------------------------------------------------|
B--------------------------------------------------------|
G---------------------------------7-9-9-9-9-9-9-9-9-9----|
D---7/9---9-9-9-9-9-9-9-9-9-9-9-7-7-9-9-9-9-9-9-9-9-9----|
A---7/9---9-9-9-9-9-9-9-9-9-9-9-7-5/7-7-7-7-7-7-7-7-7----|  (x4)
E---5/7---7-7-7-7-7-7-7-7-7-7-7/5------------------------|

Riff 1
e----------------------------|
B----------------------------|
G-----7-9-9-9-9-9-9-9-9-9----|
D-9-7-7-9-9-9-9-9-9-9-9-9----|
A-9-7-5/7-7-7-7-7-7-7-7-7----|
E-7/5------------------------|

(Silencio)               riff1
Buenos dias Buenos Aires
E5
buen dia mi amor
     B5                  riff1
de regreso como siempre
 E5
con algo mejor
         B5              riff1
Buenos dias mis amigos
 E5
traje para ver
      B5         riff1
una nueva odisea
            E5
de magia y poder


Estribillo:
     D5
Pero no...
E5
no...
D5
no...
E5   D5
me veras caer

Intro(x2)


(Silencio)              riff1
Buenos dias malos aires
E5
Una enfermedad
    B5			 riff1
del sur acaba de llegar
E5
para darte mas
	B5		riff1
Buenos dias a la gente
E5
que supo entender
	B5		   riff1
soy esclavo de los clavos
E5
que yo mismo clave


     D5
Pero no...
E5
no...
D5
no...
E5	   B5
me veras caer

E5          B5
       Buenos Aires
E5          B5
       Buenos Aires
E5          B5           E5
       Malos aires

(B5 A5 D5      B5 A5 E5) x 2


Punteo de Maxi con base en la intro (Escuchar)


Estribillo
     D5
Pero no...
E5
no...
D5
no...
E5	   B5
me veras caer

E5          B5
       Buenos Aires
E5          B5
       Buenos Aires
E5          B5           E5
       Malos aires

(B5 A5 D5      B5 A5 E5) x 2

Nota:

1) B5 y E5 tocarlas en el 7mo

y obviamente A5 en el 5to
Tap to rate this tab
# A B C D E F G H I J K L M N O P Q R S T U V W X Y Z