Song name
# A B C D E F G H I J K L M N O P Q R S T U V W X Y Z

Gungor - Heaven tab

Gungor
Heaven
From "Beautiful Things"

I feel a little guilty about posting this since this song is so basic, but
it's a great song and wanted to at least get people kick started.

Verse
E
I don't know what you've been told but
heaven is comin' down to the world

G       A
Heaven, Heaven.. is coming down
                 is all around



The entire song is jamming and riffing in the Em pentatonic, so to tab the
whole thing out would kinda be against the spirit of a blues jam like this.

Here's the main riff though...
e|--------------------------------------------|
B|--------------------------------------------|
G|--------------------------------------------|
D|--------------------------------------------|
A|--14--14-12--10------------10---------------|
E|-----------------12--10-12------------------|


If you're not sure what the minor pentatonic scale is, here it is in its
basic form. 
e|-----------------------------------12-15-----------------------------|
B|-----------------------------12-15-----------------------------------|
G|-----------------------12-14-----------------------------------------|
D|-----------------12-14-----------------------------------------------|
A|--------10-12-14-----------------------------------------------------|
E|--10-12--------------------------------------------------------------|

There are other notes mixed into that, but that's the basic root structure
of it. A very simple scale, but within those notes you'll find the amazing
skills of Jimi, SRV, Page, Clapton, Allman, etc...


If you have any input or corrections, check out my blog for more info and 
let me know if you have any songs you need help with. God bless!
Tap to rate this tab
# A B C D E F G H I J K L M N O P Q R S T U V W X Y Z