Song name
# A B C D E F G H I J K L M N O P Q R S T U V W X Y Z

Guns N Roses - Rocket Queen tab

Moderate Rock Q=112
                       F#5IX
 4/4
           Gtr II
  W          H    Q  E E   +W
                       |    |
                       /    /

  Gtr I
  W          W              H    Q  E  E
|----------|-------------|---------------|
|----------|-------------|---------------|
|----------|-------------|------------11-|
|----------|-------------|------------11-|
|----------|-------------|-------------9-|
|----------|-------------|---------------|


                               E5/F#
  +W           +W               W
   |            |               |
   /            /               /

   W           +H..        E    E  +E   Q  H
|-----------|----------------|------------------|
|-----------|----------------|------------------|
|-11--------|-(11)--------11-|-11-(11)\---------|
|-11--------|-(11)--------11-|-11-(11)\---------|
|--9--------|--(9)---------9-|--9--(9)\---------|
|-----------|----------------|------------------|


                   F#5IX                        E5/F#
  +W               W            +W              W          +W
   |               |             |              |           |
   /               /             /              /           /

   W               Q.  E H       H    E E E E   W          +H..        E
|----------------|------------|---------------|----------|-----------------|
|----------------|------------|---------------|----------|-----------------|
|----------------|-4s==6-6----|--9----8s4-4s6-|-6--------|-(6)--------11---|
|--4s=2-4s2-4s2--|-2s==4-4----|--7----6s2-2s4-|-4--------|-(4)--------11---|
|----------------|------------|---------------|----------|-------------9---|
|----------------|------------|---------------|----------|-----------------|
   Q  E E E E Q


  F#m7        E/F#             F#5
   W            W               W
   |            |               |
   /            /               /

   W           +H..        E    Q   +Q   H
|-----------|----------------|----------------|
|-----------|----------------|----------------|
|-11--------|-(11)--------11-|-11--(11)-------|
|-11--------|-(11)--------11-|-11--(11)-------|
|--9--------|--(9)---------9-|--9---(9)-------|
|-----------|----------------|----------------|


                           E/F#
  +H                       H
   |                       |
   /                       /

                                                  PM|
                                         |--3---|
   E   S S   +S  S   S S   S S   S S    +S  +S  S S S
|-----------------------------------------------------|
|-----------------------------------------------------|
|--4b5---4b5-(4)-4b5---4b5---4b5---4b5==(4)r(4)p2-----|
|-------------------------------------------------2-3-|
|-----------------------------------------------------|
|-----------------------------------------------------|


                   E/F#           F#5IX
  +W               W              W             +W
   |               |              |              |
   /               /              /              /

   Q  +E. S H      H    E E E E   Q.  E Q.  E    H    Q   Q
|----------------|--------------|-------------|----------------||
|----------------|--------------|-------------|----------------||
|----------------|--------------|-------------|----------------||
|--4--(4)s6-6----|-7----6s2-2s4-|-4s==2-2s==1-|--1----0--------||
|----------------|--------------|-------------|----------------||
|----------------|--------------|-------------|----------10\---||


    Gtrs I, II
    PM|     PM----------|
    E E a E S S +S  S S S S S S S
||--------------------------------|
||o-------------------------------|
||--------------------------------|
||--------------------------------|
||o-----0h1---------------0h1-0h1-|
||--0-2-----2-0-(0)-0-2-2---------|


  PM|     PM----------|           PM|     PM----------|
  E E a E S S +S  S S S S S S S   E E a E S S +S  S S S S S S S
|-------------------------------|--------------------------------|
|-------------------------------|--------------------------------|
|-------------------------------|--------------------------------|
|-------------------------------|--------------------------------|
|-----0h1---------------0h1-0h1-|-----0h1---------------0h1-0h1--|
|-0-2-----2-0-(0)-0-2-2---------|-0-2-----2-0-(0)-0-2-2----------|


                         1st & 2nd Verses
                          F#5IX
                          Gtr II
  W                       W
                          |
                          /

                          Gtr I
  PM----|     PM|
  S S S S S S S S H       E.  +S     +S  +S  S S +S  E S +E  E
|----------------------||--------------------------------------|
|----------------------||--------------------------------------|
|----------------------||-4b6r(4)b6==(4)r(4)p2-2-(2)-----------|
|----------------------||----------------------------4-4-(4)---|
|---------0h1----------||--------------------------------------|
|-0-0-2-2-----2-0------||--------------------------------------|


  B5IXA5VII
  E    Q.         +Q.   +E
  |    |           |     |
  /    /           /     /

  E   +S  S E S S +Q.   +E
|-----------------------------|
|-----------------------------|
|-4b6r(4)p2-2---2-(2)---(2)\--|
|-------------4---------------|
|-----------------------------|
|-----------------------------|


  E5VII
  W
  |
  /

  E E   S   +S  S S +S  E S +E  S S
|-----------------------------------|
|-----------------------------------|
|---4b5-4b5r(4)p2-2-(2)-------------|
|-----------------------4-2-(2)-3h4-|
|-----------------------------------|
|-----------------------------------|


  F#5IX
  H.                               S  S  S S
  |                                |  |  | |
  /                                x  x  x x

  E    E        S +S  S S +S  E S +S  E.
|--------------------------------------------|
|------4pb4.5==(4)---------------------------|
|-4b5===========4r(4)-2-2-(2)---2-(2)-3------|
|-----------------------------4--------------|
|--------------------------------------------|
|--------------------------------------------|


  B5
  H..                            S S
  |                              | |
  /                              x x

  Q.    E S    +S  S       S +E  E
|------------------------------------|
|-4----------------6pb6.5============|
|-4-------6b7==(6)---------6r(6)-4---|
|-4----------------------------------|
|------------------------------------|
|------------------------------------|


                                    B5/DB5/D#
  E   S S E S S +E        S       S  S  S S  S
  |   | |   | |  |        |       |  |  | |  |
  /   x /   x /  /        x       x  /  / x  x

  S S E   E S S  S    +S  S       S +S  S E
|----------------------------------------------|
|-------------------------6pb6.5==========4\---|
|-x-x-4---4-x-6--6b7==(6)---------6r(6)-4-4\---|
|----------------------------------------------|
|----------------------------------------------|
|----------------------------------------------|


  C#5               B5G#B5IVG#5VI  E5VII                 B5A5
  H        E        S S  S  E.     S E   S S S S S E S S S E.
  |        |        | |  |  |      | |   | | | | | | | | | |
  /        /        / /  /  /      / /   / / / / / / / / / /

  ~
  Q  E S S S    +S  S S +S  S  E   S S S S S S S S E S S S E.
|-------------------4------------|----------------------------||
|-6--6-x-x-4b6==(4)---4r(4)------|-5-5-5-5-5-5-5-5-5----------||
|-6--6-x-x------------------6--6-|-4-4-4-4-4-4-4-4-4-x-x-4-2--||
|--------------------------------|-----------------------4-2--||
|--------------------------------|-----------------------2-0--||
|--------------------------------|----------------------------||


 Chorus
  $
  F#5                           G#5   E5
   H.                         S  E.   W
   |                          |  |    |
   /                          /  /    /

   Q    S S S  S  +S   S S S  S  E.   E S S S S S  S  +S  S S S Q
|-----------------------------------|------------------------------|
|-11---11-x-x-12-(12)-11-x-x--------|-------9-9-9-10-(10)-9--------|
|-11---11-x-x-11-(11)-11-x-x--------|-------9-9-9--9--(9)-9-----9--|
|-11---11-x-x-11-(11)-11-x-x-11s13--|-9-x-x-9-9-9--9--(9)-9-x-x-9--|
|--9----9------9--(9)--9------9s11--|-7-x-x-7-7-7--7--(7)-7-x-x-7--|
|-----------------------------------|------------------------------|


  A5       B5 E5   F#5                        B5 A5
  H        Q  Q    H.                          S E.
  |        |  |    |                           | |
  /        /  /    /                           / /

  PM  PM
  E E S E. Q  Q    E    E S S  S S +S   S S S  S S  E
|----------------|------------------------------------|
|----------------|------------------------------------|
|---2---2--4-----|--------9-9----9-(9)-11---9---------|
|---2---2--4--2--|----/11-9-9-11-9-(9)-11---9-10s9--7-|
|-0---0----2--2--|----/11-----11--------------10s9--7-|
|-------------0--|------------------------------------|


  F#5                           G#5
   H.                         S  E.
   |                          |  |
   /                          /  /

   Q    S S S  S  +S   S S S  S  E.
|-----------------------------------|
|-11---11-x-x-12-(12)-11-x-x--------|
|-11---11-x-x-11-(11)-11-x-x--------|
|-11---11-x-x-11-(11)-11-x-x-11s13--|
|--9----9------9--(9)--9------9s11--|
|-----------------------------------|


  E5                             A5       B5 E5
  W                              H        Q  Q
  |                              |        |  |
  /                              /        /  /

                                 PM  PM
  E S S S S S  S  +S  S S S Q    E E S E. Q  Q
|------------------------------|-----------------|
|-------9-9-9-10-(10)-9--------|-----------------|
|-------9-9-9--9--(9)-9-----9--|---2---2--4------|
|-9-x-x-9-9-9--9--(9)-9-x-x-9--|---2---2--4--2---|
|-7-x-x-7-7-7--7--(7)-7-x-x-7--|-0---0----2--2---|
|------------------------------|-------------0---|


                                                             To Coda
  F#5                                                 E5         F5
                              3/4                        4/4
  W                            Q       Q       E.     S   +H     H
  |                                                   |    |     |
  /                                                   /    /     /

  E  E E  S S +S   E S +Q      S S S S S S S S S  S S S   +H     Q  +Q
|----------------------------|--------------------------|------------------||
|----------------------------|--------------------------|-----------------o||
|-9----9----9-(9)-11-9-(9)\--|--------------------------|------------------||
|-9-11-9-11-9-(9)-11-9-(9)\--|-4-2----------------------|------------------||
|---11---11------------------|-----4-3-2-0-----3--2-0---|-----------------o||
|----------------------------|-------------2----------0-|-(0)----1--(1)/---||


  Gtrs I, II
  PM|     PM----------|           PM|     PM----------|
  E E a E S S +S  S S S S S S S   E E a E S S +S  S S S S S S S
|-------------------------------|-------------------------------|
|-------------------------------|-------------------------------|
|-------------------------------|-------------------------------|
|-------------------------------|-------------------------------|
|-----0h1---------------0h1-0h1-|-----0h1---------------0h1-0h1-|
|-0-2-----2-0-(0)-0-2-2---------|-0-2-----2-0-(0)-0-2-2---------|


  PM|     PM----------|
  E E a E S S +S  S S S S S S S
|---------------------------------|
|---------------------------------|
|---------------------------------|
|---------------------------------|
|-----0h1---------------0h1-0h1---|
|-0-2-----2-0-(0)-0-2-2-----------|


                                      Guitar Solo
  Gtr I
  PM--|     PM----------|                PM-|     PM----------|
  E   E a E S S +S  S S S S S  S  S      E  E a E S S +S  S S S   S   S  S S
|-----------------------------------||---------------------------------------|
|-----------------------------------||---------------------------------------|
|-----------------------------------||---------------------------------------|
|-----------------------------------||---------------------------------------|
|-------0h1---------------0h1--0h=1-||--------0h1-----------------0h==1--0h1-|
|-0---2-----2-0-(0)-0-2-2-----------||---0--2-----2-0-(0)-0-2-2--------------|
|
| Gtr II
|                                        ~~~~~~~~~~~~~~~~~~~~~~~~~~~~~
| H..                          S  S      H.                      +S   E.
|-----------------------------------||---------------------------------------|
|-2---------------------------11----||---------------------------------------|
|-2---------------------------11----||--11----------------------(11)s14------|
|-2---------------------------11-11-||-(11)---------------------(11)s14------|
|-----------------------------------||---------------------------------------|
|-----------------------------------||---------------------------------------|


   PM-----|        PM------------|             PM-|     PM---------|
   E      E a   E  S S  +S  S  S S  S S S S    E  E a E S S +S S S S    S S   S  S
|-------------------------------------------|----------------------------------------|
|-------------------------------------------|----------------------------------------|
|-------------------------------------------|----------------------------------------|
|-------------------------------------------|----------------------------------------|
|-----------0h==1-------------------0h1-0h1-|-------0h1-----------------0h1---0h=1---|
|--0------2--------2-0--(0)-0--2-2----------|--0--2-----2-0-(0)0-2-2-----------------|
|
|                                              ~~~
|  S   E.      +Q       +E     E    E   E      H             E   E   a  E     E
|-------------------------------------------|----------------------------------------|
|-------------------------------------------|----------------------------------------|
|-----14------(14)-----(14)s==11s==14-------|--9-------------9s==8---8s11----11------|
|-14-(14)-----(14)-----(14)s==11s==14---9---|-(9)--------------------8s11---(11)-----|
|-------------------------------------------|----------------------------------------|
|-------------------------------------------|----------------------------------------|


    PM-|     PM----------|            PM|       PM-----------|
    E  E a E S S +S  S S S S S S S    E E a  E  S S  +S  S S S S S S S
|----------------------------------|-----------------------------------|
|----------------------------------|-----------------------------------|
|----------------------------------|-----------------------------------|
|----------------------------------|-----------------------------------|
|--------0h1---------------0h1-0h1-|------0h=1-----------------0h1-0h1-|
|---0--2-----2-0-(0)-0-2-2---------|--0-2-------2-0--(0)-0-2-2---------|
|
|   ~~~~                                        ~~~~~~~~~
|  +W                                 Q      E  E    +H
|----------------------------------|-----------------------------------|
|----------------------------------|-13s====14-------------------------|
|-(11)-----------------------------|-----------14---(14)---------------|
|-(11)-----------------------------|-----------------------------------|
|----------------------------------|-----------------------------------|
|----------------------------------|-----------------------------------|


      PM|       PM------------|             PM|       PM-----------|
      E E a  E  S S  +S  S  S S S S  S S    E E a  E  S S  +S  S S S S S  S S
|----------------------------------------|---------------------------------------|
|----------------------------------------|---------------------------------------|
|----------------------------------------|---------------------------------------|
|----------------------------------------|---------------------------------------|
|---------0h=1------------------0h1--0h1-|------0h=1-----------------0h1--0h1----|
|-----0-2-------2-0--(0)-0--2-2----------|--0-2-------2-0--(0)-0-2-2-------------|
|
|  a  Q      E  E    +E     Q        E      Q      E  E    +Q.            E
|----------------------------------------|---------------------------------------|
|-13s14--------------------14------------|-15s====16-----------------------------|
|-----------14----------------------14---|-----------16---(16)s==========14------|
|--------------14---(14)-----------------|---------------------------------------|
|----------------------------------------|---------------------------------------|
|----------------------------------------|---------------------------------------|


      PM|      PM----------|               PM-|     PM------------|
      E E a  E S S +S S  S S  S S  S S     E  E a E S S  +S   S S S S S S S
|--------------------------------------|------------------------------------|
|--------------------------------------|------------------------------------|
|--------------------------------------|------------------------------------|
|--------------------------------------|------------------------------------|
|---------0h=1----------------0h1--0h1-|--------0h1-----------------0h1-0h1-|
|-----0-2------2-0-(0)0--2-2-----------|---0--2-----2-0--(0)--0-2-2---------|
|
|            ~~                    ~~~~~~~~~~~
|  a  Q      Q      E    E    E    E      +H             +Q         Q
|--------------------------------------|------------------------------------|
|-14s16----------------------16---14---|-(14)-----------(14)\---------------|
|-----------14-------------------------|------------------------------------|
|------------------14s==16-------------|------------------------------------|
|--------------------------------------|------------------------------------|
|--------------------------------------|------------------------------------|


   PM|          PM------------|             PM|       PM-----------|
   E  E a E     S S  +S   S S S S S  S S    E E a  E  S S  +S  S S S   S  S S    S
|----------------------------------------|------------------------------------------|
|----------------------------------------|------------------------------------------|
|----------------------------------------|------------------------------------------|
|----------------------------------------|------------------------------------------|
|-------0h1---------------------0h1--0h1-|------0h=1-------------------0h=1-0h===1--|
|--0--2---------2-0--(0)--0-2-2----------|--0-2-------2-0--(0)-0-2-2----------------|
|
|                                                                      |---3---|
|  E  Q      a  E    +Q.             E      Q      E  E    +Q         +Q       E
|----------------------------------------|------------------------------------------|
|-13s14-----13s14---(14)\----------------|------------------------------------------|
|-----------------------------------14s==|=13---------------------------------14s===|
|----------------------------------------|--------14--------------------------------|
|----------------------------------------|-----------14---(14)-------(14)-----------|
|----------------------------------------|------------------------------------------|


                             PM|     PM------------|
   E E  S S  S S   H         E E S S S S  +S  S  S S S S  S S
|------------------------|------------------------------------|
|------------------------|------------------------------------|
|------------------------|------------------------------------|
|------------------------|------------------------------------|
|-------0h1--------------|-------3h4-----------------3h4--3h4-|
|--0-2-------2-0---------|---3-5-----5-3--(3)-3--5-5----------|
|
|                            ~~~~~~~~~~~~~~~~~
|  Q    E    E    +H         H            +E     Q        E
|------------------------|------------------------------------|
|------------------------|----------------------13s======17---|
|-13---------------------|-/14-----------(14)-----------------|
|------14s==16---(16)----|-/14-----------(14)-----------------|
|------------------------|------------------------------------|
|------------------------|------------------------------------|


   PM|          PM-----------|
   E  E S S     S S +S  S  S S S S  S S
|-----------------------------------------|
|-----------------------------------------|
|-----------------------------------------|
|-----------------------------------------|
|-------3h4--------------------3h4--3h4---|
|--3--5---------5-3-(3)-3--5-5------------|
|
|  E  Q      a  E    E     Q        E
|-17-17-----17s21---------17--------------|
|----------------------------------17s====|
|-----------------------------------------|
|-----------------------------------------|
|-----------------------------------------|
|-----------------------------------------|


   PM|        PM-------------|
   E  E  S S  S  S +S   S  S  S  S S S S
|----------------------------------------|
|----------------------------------------|
|----------------------------------------|
|----------------------------------------|
|--------5h6---------------------5h6-5h6-|
|--5--7-------7--5-(5)--5--7--7----------|
|
|  E  E  E    S  S  S   S  S  S  Q
|----19-19---19-19-19--19-19-19-19s======|
|-19-------------------------------------|
|----------------------------------------|
|----------------------------------------|
|----------------------------------------|
|----------------------------------------|


  E E S S S S  Q   Q     E   E S S S S +S  S S S S S S S
|---------------------||-----------------------------------|
|---------------------||-----------------------------------|
|---------------------||-----------------------------------|
|---------------------||-------2h3-------------------2h3---|
|-----5-6-------------||-2---4-----4-------------2-4-------|
|-5-7-----7-5--7------||-------------0-(0)-2-3-4-----------|
|
| H           +H         S S E S S S S  S  S S S S S E
|-x-----------(x)-----||-----------------------------------|
|---------------------||-4h5h6-x-x-4-4--x--6-x-------------|
|---------------------||-4-5-6-x-x-4-4--x--6-x-4-4h5h6-----|
|---------------------||-4h5h6-x-x-4-4--x--6-x-4-4h5h6-----|
|---------------------||-----------------------------------|
|---------------------||-----------------------------------|


  E   E   S S S S +S  S S S S S S S
|-----------------------------------|
|-----------------------------------|
|-----------------------------------|
|---------2h3-------------------2h3-|
|-2---4-------4-------------2-4-----|
|---------------0-(0)-2-3-4---------|
|
| S S S S S S S S +S  E   S S S E
|-----------------------------------|
|-----------------------------------|
|-4h5h6-6-6-6-x-4-(4)-------4h5-6---|
|-4h5h6-6-6-6-x-4-(4)-6---6-4h5-6---|
|---------------------6---6---------|
|-----------------------------------|


                                                        D.S. al Coda
  E   E   S S S S +S  S S S S S S S   E   E S S S S +S   S S S S E.
|-----------------------------------|---------------------------------||
|-----------------------------------|---------------------------------||
|-----------------------------------|---------------------------------||
|---------2h3-------------------2h3-|-------2h3-----------------------||
|-2---4-------4-------------2-4-----|-2---4-----4--------------2-0----||
|---------------0-(0)-2-3-4---------|-------------0-(0)--2-3-4--------||
|
| S S S S S S S S +S  E   S S S E     S S E S S S S +E     S S S E.
|-----------------------------------|---------------------------------||
|-----4h5-6-6-----------------------|---------------------------------||
|-x-x-4-5-6-6---4-(4)-6---4-4h5-6---|-x-x-6-6-6-x-6-(6)\---x-x-4-2----||
|-x-x-4h5-6-6---4-(4)-6---4-4h5-6---|-x-x-6-6-6-x-6-(6)\---x-x-4-2----||
|-----------------------------------|--------------------------2-0----||
|-----------------------------------|---------------------------------||


  &
  F#
  Gtr II
  H..             E   E E E E E E E E
  |               |   | | | | | | | |
  /               /   / / / / / / / /

  PM--------------------------------|
  E   E E E E E E E   E E E E E E E E
|-------------------|-----------------||
|-------------------|-----------------||
|-------------------|-----------------||
|-4---4-4-4-4-4-4-4-|-4-4-4-4-4-4-4-4-||
|-4---4-4-4-4-4-4-4-|-4-4-4-4-4-4-4-4-||
|-2---2-2-2-2-2-2-2-|-2-2-2-2-2-2-2-2-||


    E5VII     B5  C#5       C#   B/C#C#              E5VII     A5V B5VII
    Q   Q   E E E E   +E  E E  E E   E    Q          Q   Q   E E E E
    |   |     |   |    |  | |    |   |               |   |     | | |
    /   /     /   /    /  / /    /   /               /   /     / o /

    PM|                                ~~~~~~        PM|
    E E Q   E E E E   +Q    Q    S S S S +S  S S S   E E Q   E E E E
||------------------|------------------------------|-----------------|
||o-----------------|------------------------------|-----------------|
||------9\----4---6-|-(6)---6\---------------------|-----9\----2---4-|
||------9\----4---6-|-(6)---6\---------------------|-----9\----2---4-|
||o-----7\----2---4-|-(4)---4\-------2-4-(4)-4-----|-----7\----0---2-|
||--0-0-------------|------------3-4-----------3h4-|-0-0-------------|


                              E5VII     B5  C#5       C#  B/C#C#
  +H.               Q         Q   Q   E E E E   +E  E E E E    E  Q
   |                          |   |     |   |    |  | |   |    |
   /                          /   /     /   /    /  / /   /    /

                              PM|
  +E  E E E   E   E E   E     E E Q   E E E E   +Q.     E E   +E  E E
|---------------------------|-----------------|-----------------------|
|---------------------------|-----------------|-----------------------|
|-(4)-----------------------|-----9\----4---6-|-(6)-----------------9-|
|-(4)-----------------------|-----9\----4---6-|-(6)-----------------9-|
|-(2)-2-4-4b5-4b6-2---------|-----7\----2---4-|-(4)-----------------7-|
|-------------------2b4-2b3-|-0-0-------------|---------0-2b4r(2)-0---|


                        1.                            2.
  E5VII        A5V   B5VII
   Q   Q   E    E  E E   +H.               Q            H.      Q
   |   |        |  | |    |                             |
   /   /        /  o /    /                             /

  +Q   E E E   +E  E E   +E  E S S S S E E S S S S     +W
|----------------------|----------------------------||-------------||
|----------------------|---------------------------o||-------------||
|-(9)--9-9-----------4-|-(4)-4-4-4-4-4-4-4-4-4-4-4--||-(4)---------||
|-(9)--9-9-----------4-|-(4)-4-4-4-4-4-4-4-4-4-4-4--||-(4)---------||
|-(7)--7-7-----------2-|-(2)-2-2-2-2-2-2-2-2-2-2-2-o||-(2)---------||
|----------2b4r(2)-0---|----------------------------||-------------||


              B5  C#5                               A5V B5VII
    E E Q   E E E E   +W                  E E Q   E E E E   +W
    | | |     |   |    |                  | | |     |   |    |
    o o o     /   /    /                  o o o     /   /    /

    E E E E E E E E   +E  E E E E E E E   E E E E E E E E   +E  E E E E E E E
||----0-------0-----|-----0-----0-------|---0-------0-----|-----0-----0-------|
||o-----9-------7---|-------5-----5---0-|-----9-------7---|-------7-----5---7-|
||--9-----9-8-----6-|-(6)-----6-----6---|-9-----9-8-----8-|-(8)-----8-----8---|
||------------------|-------------------|-----------------|-------------------|
||o-----------------|-------------------|-----------------|-------------------|
||------------------|-------------------|-----------------|-------------------|


            B5  C#5                               F#5 B5
  E E Q   E E E E   +W                  E E Q   E E E E   +W
  | | |     |   |    |                  | | |     |   |    |
  o o o     /   /    /                  o o o     /   /    /

  E E E E E E E E   +E  E E E E E E E   E E E E E E E E   +E  E E E E E E E
|---0-------0-----|-------0-----0-----|---0-------0-----|-----0-----0-0-------||
|-----9-------7---|-----5---------0---|-----9-------7---|---------4-----4----o||
|-9-----9-8-----6-|-(6)-----6-4-----6-|-9-----9-8-----4-|-(4)---4---------4---||
|-----------------|-------------------|-----------------|---------------------||
|-----------------|-------------------|-----------------|--------------------o||
|-----------------|-------------------|-----------------|---------------------||


    E5      B5  C#5      C#  B/C#     E5      A5V B5VII
    Gtrs I, II
    Q  Q  E E E E   +E E E E E E Q    Q  Q  E E E E   +E E E E E E E E
    |  |    |   |    | | |   | |      |  |    | | |    | | | | | | | |
    /  /    /   /    / / /   / /      /  /    / o /    / / / / / / / /

    W                W                W                W                4x
||----------------|-----------------|---------------|-------------------||
||o---------------|-----------------|---------------|------------------o||
||----------------|-----------------|---------------|-------------------||
||----------------|-----------------|---------------|-------------------||
||o---------------|-----------------|---------------|------------------o||
||----------------|-----------------|---------------|-------------------||


 Outro
  E5                           B5      C#5
   Q           Q             E  E    E  E    +E  E E E   E     E E    E
   |           |                |       |     |  | | |   |     | |    |
   /           /                /       /     /  / / /   /     / /    /

                                        ~~~~~~~~~
   E      +E   E      +S  S  e  E    E  E    +H         +E     E S  S S  S
|-----------------------------------------|--------------------------------|
|-----------------------------------------|--------------------------------|
|-11pb13r(11)-11pb13r(11)p9-11-11b13-9----|---------------------------9----|
|--------------------------------------11-|-(11)-------(11)\-----9h11---11-|
|-----------------------------------------|------------------/11-----------|
|-----------------------------------------|--------------------------------|


  E5                          A5V     B5VII
   Q      Q              E    E  E      E     +E  E E E   E    E E E
   |      |                   |  |      |      |  | | |   |    | | |
   /      /                   /  o      /      /  / / /   /    / / /

                                                                   PM
              |---3---|
   Q.        +S   +S  S  Q       E     +E     +E  Q   S S S S  Q   S  S
|------------------------------------------|------------------------------|
|------------------------------------------|------------------------------|
|-11b13=====(11)r(11)p9-11b13---11b13r(11)-|-(11)-9---8h9-8-9-11----------|
|------------------------------------------|-----------------------9-11---|
|------------------------------------------|------------------------------|
|------------------------------------------|------------------------------|


  E5             B5     C#5
   Q       Q   E   E  E  E       +E  E  E E  E       E  E  E
   |       |       |     |        |  |  | |  |       |  |  |
   /       /       /     /        /  /  / /  /       /  /  /

   Q       Q   E  +E  E  E       +Q     Q    E      +E  E  E
|-----------------------------|-----------------------------------|
|-----------------------12b14-|-(12)---12-----------------12pb14==|
|-11b13===11--11r(11)-9-------|-------------11pb13r(11)-9---------|
|-----------------------------|-----------------------------------|
|-----------------------------|-----------------------------------|
|-----------------------------|-----------------------------------|


  E5                   A5V    B5VII
    Q        Q   E       E  E  E         +E   E E E E    E  E E
    |        |           |  |  |          |   | | | |    |  | |
    /        /           /  o  /          /   / / / /    /  / /

             ~~
   +E   +E   Q   E      +E  E  E         +E   E E E E   +E  E E
|-----------------------------11pb12==|=(11)r11-7----------------|
|-(12)r(12)-12------------------------|-----------7--------------|
|---------------11pb12r(11)-9---------|-------------8b9r(8)------|
|-------------------------------------|---------------------9----|
|-------------------------------------|-----------------------9--|
|-------------------------------------|--------------------------|


  E5                            B5       C#5
   Q           Q              E  E     E  E
   |           |                 |        |
   /           /                 /        /

                                          ~~~
   E      +E   E      +S   S  e  E     E  E
|-14pb16r(14)-14pb16r(14)p12-14-14b16-12----|
|----------------------------------------14-|
|-------------------------------------------|
|-------------------------------------------|
|-------------------------------------------|
|-------------------------------------------|


   +E   E     E     E     E     E     E     E
    |   |     |     |     |     |     |     |
    /   /     /     /     /     /     /     /

 ~~~~~~
   +E   S  S  S  S  S  S  S  S  S  S  S  S  S  S
|------------------------12-12-12----------------|
|-(14)-12----14-14p12-------------12-14-14p12----|
|---------13----------13----------------------13-|
|------------------------------------------------|
|------------------------------------------------|
|------------------------------------------------|


  E5                      A5V      B5VII
   Q      Q             E  E     E  E       +E   E     E          E     E   E   E   E
   |      |                |     |  |        |   |     |          |     |   |   |   |
   /      /                /     o  /        /   /     /          /     /   /   /   /

          |----3-----|
   Q      E     +E   E  E  E     E  E       +E   S  S  S     +S   S  S  E  +Q       E
|-14b16--14b16r(14)p12-14-14b16-12-------|------11-14---------------------------------|
|----------------------------------14b16-|-(14)-------14b16r(14)p12----12-(12)\---/12-|
|----------------------------------------|--------------------------13----------------|
|----------------------------------------|--------------------------------------------|
|----------------------------------------|--------------------------------------------|
|----------------------------------------|--------------------------------------------|


  E5                               B5             C#5
    Q        Q                E    E         E    E
    |        |                     |              |
    /        /                     /              /

    |--3--|           |-3--|
   +E  e  e  S  T  T  S S  S  S  S T  T T  T S  S S  S
|------9-11-12-11h12p11p9----11----9h11p9----9----9-----|
|-(12)--------------------12----12--------12---12---12--|
|-------------------------------------------------------|
|-------------------------------------------------------|
|-------------------------------------------------------|
|-------------------------------------------------------|


  +E       E       E       E E     E      E    E
   |       |       |       | |     |      |    |
   /       /       /       / /     /      /    /

                                               |-3-|
   S  T  T S  T T  T T T T E T T S T T S +S  S S S S
|----------------------------------------------------|
|-10h12p10-9h10p9-10p9p8h9p7-8p7p5-7p5p4-(4)h5-------|
|----------------------------------------------6h8h9-|
|----------------------------------------------------|
|----------------------------------------------------|
|----------------------------------------------------|


  E5                                  A5V      B5VII
  Q               Q                E   E  E     E
  |               |                    |  |     |
  /               /                    /  o     /

  |-----6------|  |-3--|
  S S  S  S S  S  S S  S     +E   +E   e  S  S  S  S
|-----------9h12p11p9h12b14-(12)-(12)-12-11-12-11-----|
|-7h9h10S12---------------------------------------12--|
|-----------------------------------------------------|
|-----------------------------------------------------|
|-----------------------------------------------------|
|-----------------------------------------------------|


                             EI           B/D#    C#m
   E E  E     E  E E  E E     Q     E S S E E S S E    +E  E E S S E E E S S
   | |  |     |  | |  | |     |     | | | | | | | |     |  | | | | | | | | |
   / /  /     /  / /  / /     /     / x x / / x x /     /  / / x x / / / x x

   ~~      ~~~                                          ~~~~
   Q    S  E.    Q    Q       W                        +H          H
|-------------------------||-11b12------------------|-(11)--------------------|
|---------------12---11---||------------------------|-------------------------|
|-11---11-11--------------||------------------------|-------------------------|
|-------------------------||------------------------|-------------------------|
|-------------------------||------------------------|-------------------------|
|-------------------------||------------------------|-------------------------|


  EI       B/D#    B5
  Gtrs I, II
  Q  E S S E E S S E   +E E E S S E E E S S
  |  | | | | | | | |    | | | | | | | | | |
  /  / x x / / x x /    / / / x x / / / x x

  W                     W
|--------------------|----------------------|
|--------------------|----------------------|
|--------------------|----------------------|
|--------------------|----------------------|
|--------------------|----------------------|
|--------------------|----------------------|


  EI       B/D#    C#m            B     A
  Q  E S S E E S S E   +E E E S S E E E E
  |  | | | | | | | |    | | | | | | | | |
  /  / x x / / x x /    / / / x x / / / /

  W                     W
|--------------------|--------------------|
|--------------------|--------------------|
|--------------------|--------------------|
|--------------------|--------------------|
|--------------------|--------------------|
|--------------------|--------------------|


                 FREE TIME
  H.=H
        G#m       E5   EI                                  E5VII
        |-3-|
  +H    Q Q Q     H    H      +W          +H..       S S   H    H
   |    | | |     |    |       |           |         | |   |
   /    / / /     /    /       /           /         x x   /

   W              W            W           W               W
|--------------||-----------:-----------:----------------:-----------*|
|--------------||-----------:-----------:----------------:-----------*|
|--------------||-----------:-----------:----------------:-----------*|
|--------------||-----------:-----------:----------------:-----------*|
|--------------||-----------:-----------:----------------:-----------*|
|--------------||-----------:-----------:----------------:-----------*|




--------------------------------------------------------------------------------


Duration Legend
---------------
W - whole; H - half; Q - quarter; E - 8th; S - 16th; T - 32nd; X - 64th; a - acciaccatura
+ - note tied to previous; . - note dotted; .. - note double dotted
Uncapitalized letters represent notes that are staccato (1/2 duration)
Irregular groupings are notated above the duration line
Duration letters will always appear directly above the note/fret number it represents the
duration for.  Duration letters with no fret number below them represent rests.  Multi-
bar rests are notated in the form Wxn, where n is the number of bars to rest for.  Low
melody durations appear below the staff

Tablature Legend
----------------
 h   - hammer-on
 p   - pull-off
 b   - bend
 pb  - pre-bend
 r   - bend release (if no number after the r, then release immediately)
 /\  - slide into or out of (from/to "nowhere")
 s   - legato slide
 S   - shift slide
 - natural harmonic
[n]  - artificial harmonic
n(n) - tapped harmonic
 ~   - vibrato
 tr  - trill
 T   - tap
 TP  - trem. picking
 PM  - palm muting
\n/  - tremolo bar dip; n = amount to dip
 \n  - tremolo bar down
 n/  - tremolo bar up
/n\  - tremolo bar inverted dip
 =   - hold bend; also acts as connecting device for hammers/pulls
 <> - volume swell (louder/softer)
 x   - on rhythm slash represents muted slash
 o   - on rhythm slash represents single note slash

Misc Legend
-----------
 |  - bar
||  - double bar
||o - repeat start
o|| - repeat end
*|  - double bar (ending)
 :  - bar (freetime)
 $  - Segno
 &  - Coda
Tempo markers -  = BPM(8/16=s8/s16), where s8 = swing 8ths, s16 = swing 16ths
Tap to rate this tab
 
# A B C D E F G H I J K L M N O P Q R S T U V W X Y Z