Song name
# A B C D E F G H I J K L M N O P Q R S T U V W X Y Z

Guns N Roses - Pretty Tied Up tab

Help us improve GuitareTab! Take a short survey!
Pretty Tied Up
 by
Guns N Roses

Tuning: 1/2 step down
Riff A: (0:23)
eb|---------------------------|
Bb|-----15---15------15---15x-|
Gb|--14---------14------------|
Db|---------------------------|
Ab|---------------------------|
Eb|---------------------------|

Riff B: (1:26)
eb|--2------------------------|
Bb|------3---1---3~~~~~~~~b4--|
Gb|---------------------------|
Db|---------------------------|
Ab|---------------------------|
Eb|---------------------------|

Intro:
eb|---------------------------|
Bb|------2-3-5-3-2-2h3-2------|
Gb|--0h3-----------------3-2--|
Db|---------------------------|
Ab|---------------------------|
Eb|---------------------------|

Repeat as many times needed:
(this is played before and after the drums start)
eb|----------------------------------|
Bb|----------------------------------|
Gb|--2---0-2---0-2-0-2--0-2-2h3p2-0--|
Db|--0---0-0---0-0-0-0--0-0-0-----0--|
Ab|----------------------------------|
Eb|----------------------------------|

Verse:
Repeat for the first two lines.(twice for each one)
eb|----------------------------------|
Bb|----------------------------------|
Gb|--2---0-2---0-2-0-2--0-2-2h3p2-0--|
Db|--0---0-0---0-0-0-0--0-0-0-----0--|
Ab|----------------------------------|
Eb|----------------------------------|
I know this chick she lives down on Melrose
She ain't satisfied without some pain

G5              E5         D5
Friday night is goin' up inside her... again
     G5                         F#5      E5     D5
Well crack the whip 'Cause that bitch is just insane
I'm serious

Chorus:
      A5     C5   D5
She's pretty tied up Hangin' upside down
      A5     C5   D5
She's pretty tied up An you can ride her
      A5     C5   D5
She's pretty tied up Hangin' upside down
F5      G5                       D5
I can't tell you she's the right one (Oh no, oh no, oh no)

Don't know the solo. 
Related for Pretty Tied Up tab