Song name
# A B C D E F G H I J K L M N O P Q R S T U V W X Y Z

Guns N Roses - The Godfather Theme tab

Yeah i made it my self i am not sure it is 100 % right but it sounds cool


                                           Intro
E||--------------------------------|---------------------|------------------------------|
B||--------------------------------|---------------------|------------------------------|
G||------------12-11-12-13-12-12---|-12-11-12-13-12-12---|-12-11-12--15--12-11-14-12----|
D||------------------------------12|-------------------12|------------------------------|
A||--------------------------------|---------------------|------------------------------|
E||--------------------------------|---------------------|------------------------------|


--9-12-11-9-12-9-11--9---------------9-12-11-9-12-9-11-9----------|
-9---------------------10-12-9-----9---------------------9-8-7----|
------------------------------------------------------------------|
------------------------------------------------------------------|
------------------------------------------------------------------|
------------------------------------------------------------------|

------8-11-------8-9---------------------------8-9-----9-9-9-8-7--|
-7-10-------7-10----------12-10-9-12-10-10-9-9--------------------|
------------------------9-----------------------------------------|
---------------------11-------------------------------------------|
------------------------------------------------------------------|
------------------------------------------------------------------|

-11-11-9-------------------------8-9--|
---------10-9---9-12-9-7----7-10------|
--------------------------------------|
--------------------------------------|  repeat this part 2 times
--------------------------------------|
--------------------------------------|

after  you repeat the top part 2 times you pay it again but intead of starting at the 
start at the twelve and then repeat that part twice and its finished well 
Tap to rate this tab
 
# A B C D E F G H I J K L M N O P Q R S T U V W X Y Z