Song name
# A B C D E F G H I J K L M N O P Q R S T U V W X Y Z

Guru Josh Project - Infinity 2008 chords

Highlighted       Show chord diagrams
-----------------------------------------------------------------------------
			 Infinity 2008 - Guru Josh Project
-----------------------------------------------------------------------------
Having tried the chords already given, I realised that they maybe weren't as accurate as 
could have been. The chords given here are pitch-perfect with regards to the actual 
It's a great song, enjoy!

Note: Fsus4 is not necessary, but if you can play it, it's more accurate. If you don't 
it, just play F there instead.

Chords
    D#    Gm    Bb    Fsus4    F
e|--6-----3-----1------1-------1--------|
B|---8----3------3-----1-------1--------|
G|---8----3------3------3-------2-------|
D|---8-----5-----3------3-------3-------|
A|--6------5----1-------3-------3-------|
E|--------3------------1-------1--------|

D#            Gm
Here's my key philosophy,
Bb              (Fsus4)             F
A freak like me,just needs infinity (infinity)

And so on; the same chord loop repeats.

Thanks,

FTQFilmFinanceAffairsStudioProductionCorporationConcernIncorporated
Tap to rate this tab
# A B C D E F G H I J K L M N O P Q R S T U V W X Y Z