Song name
# A B C D E F G H I J K L M N O P Q R S T U V W X Y Z

Guster - What You Wish For tab

This is an awesome song by Guster and it took me forever to find the tab so here it is...

What You Wish For

Opening Riff:
e -----------------|
B ---0---0---0---0-|
G -----------------|
D -2---4-----------|
A ---------2---4---|
E -----------------|

Verse:
First Guitar: Emaj
Second Guitar:

e ----------------|
B ----------------|
G ----------------|
D -------------2--|
A -------2-2-4----|
E -0-0-0----------|

PreChorus:
First Guitar:
Emaj
e -5-7-5-4-----------00---------|
B ---------5---------00---------|
G -----------4-2-1---11---------|
D -------------------22---------|
A -------------------22---------|
E -------------------00---------|

Second Guitar:
Amaj F#min
e -0-----2-------------------|
B -2-----2-------------------|
G -2-----2-------------------|
D -2-----4-----------------2-|
A -0-----4-----------2-2-4---|
E -------2-----0-0-0---------|

Chorus:

First Guitar: (repeat)

e -7--------|
B ---7------|
G -----8----|
D -------9--|
A ----------|
E ----------|

Second Guitar:

e ---------|
B ---------|
G -4-4-4-4-|
D -4-4-4-4-|
A -2-0-X-X-|
E -----4-2-|

PostChorus:

Guitar One:

e -----7-----------7-------7-------7----|
B -7-9---9-X-X-7-9---9-7-9---9-7-9---9--|
G -9-9-9-9-X-X-9-9-9-9-9-9-9-9-9-9-9-0--|
D --------------------------------------|
A --------------------------------------|
E --------------------------------------|

Guitar Two:

e ---------------------------|
B ---------------------------|
G -4>6-4-1---1-4-1-----------|
D ---------4-----------------|
A ---------------------------|
E ---------------------------|

Bridge:
Amaj Bmaj
e ----------------0--------------------X--------------|
B -7-9-10--7-9-10-2---7-9-10--7-9-10---X--------------|
G -7-7--7--7-7--7-2---7-7--7--7-7--7---4--------------|
D ----------------2--------------------4--------------|
A ----------------0--------------------2--------------|
E -------------------------------------X--------------|
Tap to rate this tab
# A B C D E F G H I J K L M N O P Q R S T U V W X Y Z