Song name
# A B C D E F G H I J K L M N O P Q R S T U V W X Y Z

Guthrie Govan - Erotic Cakes tab

----------------------------------------------------------------------
                           Guthrie Govan-Erotic Cakes
----------------------------------------------------------------------
Tabbed By Peter Marten
petemarten@yahoo.com

Tuning:standard


e|-------------------------------------------------------------------|
B|-------------------------------------------------------------------|
G|-------------------------------------------------------------------|
D|------------------------------1------------------------------------|
A|---7-6-5--------8----5------------------------7-6-5--8-7-6---------|
E|-0--------8-7-6---4-----0--0-----1----1----0----------------6-5-4--|


e|-------------------------------------------------------------------|
B|-------------------------------------------------------------------|
G|--7----5-----------------------------------------------------------|
D|---------------8----------------------------------------1----------|
A|----4-----7-6-----------------7-6-5---------8---5------------------|
E|-------------------6-5-4----0--------8-7-6----4----0-0-----1---1---|


e|-------------------------------------------------------------------|
B|-------------------------------------------------------------------|
G|-------------------------------------------------------------------|
D|-------------------------------------------------------------------|
A|-----7-6-5--8-7-6----------7-7-6-6-6-6-5-5-4-4-6-6-5-5-5-5-4-4-3-3-|
E|--0-----------------6-5-4------------------------------------------|

e|-------------------------------------------------------------------|
B|-------------------------------------------------------------------|
G|-------------------------------------------------------------------|
D|-------------------------------------------------------------------|
A|--5-5-4-4-4-4-3-3-2-2--1-3-----------------------------------------|
E|----------------------------3--0-----------------------------------|


Repeat Riff throughout song in double time. 


Heres the turnaround in double time

e|-------------------------------------------------------------------|
B|-------------------------------------------------------------------|
G|-------------------------------------------------------------------|
D|-------------------------------------------------------------------|
A|--7-6-6-5-4-6-5-5-4-3-5-4-4-3-2-1-3--------------------------------|
E|-------------------------------------3-0---------------------------|

Tap to rate this tab
# A B C D E F G H I J K L M N O P Q R S T U V W X Y Z