Song name
# A B C D E F G H I J K L M N O P Q R S T U V W X Y Z

Gwen Stefani - Keep On Dancin tab

-------------------------------------------------------------------------------
	            KEEP ON DANCIN' - Gwen Stefani
-------------------------------------------------------------------------------
Tabbed by: BackintheUssr (Mat Paget)
Website: http://www.myspace.com/jaywalkingmusic

Okay, this song is easy, but amazingly catchy, 
which is the case with a lot of easy songs, 
there's only one REAL guitar riff in this song
but I'll show you the guitar riff,
and something I play throughout the rest of the song

e|--3-3-3-3-3-4----4-4-4-4-4-3------|
B|--3-3-3-3-3-4----4-4-4-4-4-3------|
G|--4-4-4-4-4-5----5-5-5-5-5-4------|
D|----------------------------------|
A|----------------------------------|
E|----------------------------------|

I play that clean, with the bridge pick up
Listen to the song to get it right
now here's a riff that I play for every other part,
thats actually played by a keyboard or something

e|------------------------------|
B|------------------------------|
G|------------------------------|
D|-5-5-5-5-5-6---6-6-6-6-6-5----|
A|-5-5-5-5-5-6---6-6-6-6-6-5----|
E|-3-3-3-3-3-4---4-4-4-4-4-3----|

Alright I play this part with some overdrive, not a lot, but not too little
Do what you want with it


Alright there's a pretty easy but catchy Gwen Stefani song

| /  slide up
| \  slide down
| h  hammer-on
| p  pull-off
| ~  vibrato
| +  harmonic
| x  Mute note
===============================================================================
Tap to rate this tab
 
# A B C D E F G H I J K L M N O P Q R S T U V W X Y Z