Song name
# A B C D E F G H I J K L M N O P Q R S T U V W X Y Z

Gzr - Misfit tab

----------------------------------------------------------------------------
______________Misfit-(intro)______________ - GZR____
----------------------------------------------------------------------------
Tabbed by: Kerry Fan1
http://profile.ultimate-guitar.com/Kerry+fan1/

Song: Misfit
Artist: GZR
Album: Ohmwork

Tuning: Standard                                                 

when ever you see--------------------------------------this-->>> |\ 
it means there are 2 guitars                                     ||     
                                                                 ||
                                                                 |/
Intro                                                                
Guitar 1:                                                            
E|-------------------------------------------------------------------|\
B|-------------------------------------------------------------------||
G|-------------------------------------------------------------------||
D|-------------------------------------------------------------------||
A|--5/-7--7----5/-7--7----5/-7--7/-8---9/--8---7---------------------||
E|--3/-5--5----3/-5--5----3/-5--5/-6---7/--8---5---------------------||
                                                                      |
  Guitar 2:                                                           |
E|-------------------------------------------------------------------||
B|-------------------------------------------------------------------||
G|-------------------------------------------------------------------||
D|--5/-7--7----5/-7--7----5/-7--7/-8---9/-10---7---------------------||
A|--3/-5--5----3/-5--5----3/-5--5/-6---7/--8---5---------------------||
E|-------------------------------------------------------------------|/


Guitar 1:
E|-------------------------------------------------------------------|\
B|-------------------------------------------------------------------||
G|-------------------------------------------------------------------||
D|-------------------------------------------------------------------||
A|--5/-7--7----5/-7--7----5/-7--7/-8---9/--8---7---------------------||
E|--3/-5--5----3/-5--5----3/-5--5/-6---7/--8---5---------------------||
                                                                      |
  Guitar 2:                                                           |
E|-------------------------------------------------------------------||
B|-------------------------------------------------------------------||
G|-------------------------------------------------------------------||
D|--5/-7--7----5/-7--7----5/-7--7/-8---9/-10---7---------------------||
A|--3/-5--5----3/-5--5----3/-5--5/-6---7/--8---5---------------------||
E|-------------------------------------------------------------------|/


Guitar 1:
E|-------------------------------------------------------------------|\
B|-------------------------------------------------------------------||
G|-------------------------------------------------------------------||
D|-------------------------------------------------------------------||
A|--5/-7--7----5/-7--7----5/-7--7/-8---9/--8---7---------------------||
E|--3/-5--5----3/-5--5----3/-5--5/-6---7/--8---5---------------------||
                                                                      |
  Guitar 2:                                                           |
E|-------------------------------------------------------------------||
B|-------------------------------------------------------------------||
G|-------------------------------------------------------------------||
D|--5/-7--7----5/-7--7----5/-7--7/-8---9/-10---7---------------------||
A|--3/-5--5----3/-5--5----3/-5--5/-6---7/--8---5---------------------||
E|-------------------------------------------------------------------|/




****************************************
/ slide
****************************************
Tap to rate this tab
 
# A B C D E F G H I J K L M N O P Q R S T U V W X Y Z