Song name
# A B C D E F G H I J K L M N O P Q R S T U V W X Y Z

H2o - Static tab

hey its mark nice to meet ya this is my first tab and i hope you like it

E|------------------------------------------------------------------------------
B|------------------------------------------------------------------------------
G|-----0--------------------------------------4-3-2-1-0-------------------------
D|---5-------------------------0-0-1-4-3-6-7--------------------------3-2-1-0-1-
A|-5-----0-5-5-3-3-5-4-6-0h1h2--------------------------------------------------
E|------------------------------------------------------------------------------

E|------------------------------------------------------------------------------
B|------------------------------------------------------------------------------
G|--------------------6-3-0-2-0-11-14-10-0--------------------------------1---2-
D|---4-4-5-7-0-3-0-4-----------------------0-----------------------------0--0--1
A|-5-----------------------------------------0-4-2-0-0-0-11h12h13p12p11---------
E|------------------------------------------------------------------------------

Solo x4

if you have any questions e mail me at freak_in_a_cage@hotmail.com
Tap to rate this tab
# A B C D E F G H I J K L M N O P Q R S T U V W X Y Z