Song name
# A B C D E F G H I J K L M N O P Q R S T U V W X Y Z

Hadouken - Ugly tab

Hey, this is the Teachno solo in Ugly, i think its 100% for guitar:)

e[-------------------]
B[---------14p12-10v-]
G[-7-9/11v-----------]
D[-------------------]
A[-------------------]
E[-------------------]


e[------------------------]
B[---------10p9-----9-9p7v]
G[-11-9-11------6h9-------]
D[------------------------]
A[------------------------]
E[------------------------]

Repeat that, 3 times i think, then the final time just hold

e[-------]
B[-------]
G[-12~~~~]
D[-------]
A[-------]
E[-------]

For this song, its very good to use a Wah pedal on this, sounds lush:DD

And you just lost the game!
Tap to rate this tab
 
# A B C D E F G H I J K L M N O P Q R S T U V W X Y Z