Song name
# A B C D E F G H I J K L M N O P Q R S T U V W X Y Z

Hail The Villain - Runaway tab

Listen for correct chord/strumming rhythm


INTRO- REPEAT TWICE

GUITAR 1

E|-----4--454--------4--454---|
B|---5--------7----5--------5-|
G|-6-------------6------------|
D|----------------------------|
A|----------------------------|
D|----------------------------|

GUITAR 2

E|------X-X-X-----------------|
B|------0-0-0-----------------|
G|-6-6--2-2-2-----------------|
D|-6-6--2-2-2--2-2--6-6-6-----|
A|-4-4--0-0-0--2-2--6-6-6-----|
D|------X-X-X--2-2--6-6-6-----|


VERSE- BOTH GUITARS

E|-----X-------X--|
B|-----0-------0--|
G|-6---2-------2--|
D|-6---2---4---2--|
A|-4---0---4---0--|
D|-----X---4---X--|

CHORUS

GUITAR 1

E|-----4--454--------4--454---|
B|---5--------7----5--------5-|
G|-6-------------6------------|
D|----------------------------|
A|----------------------------|
D|----------------------------|

GUITAR 2

E|------X-X-X-----------------|
B|------0-0-0-----------------|
G|-6-6--2-2-2-----------------|
D|-6-6--2-2-2--2-2--6-6-6-----|
A|-4-4--0-0-0--2-2--6-6-6-----|
D|------X-X-X--2-2--6-6-6-----|

SOLO~~~~~~~~~~~~~~~~~~~~~~~~~~~


AFTER EPIC SOLO- play chords once then back to normal verse rhythm

E|-----X-------X--|
B|-----0-------0--|
G|-6---2-------2--|
D|-6---2---4---2--|
A|-4---0---4---0--|
D|-----X---4---X--|


CHORUS- repeat until end of song

E|-----4--454--------4--454---|
B|---5--------7----5--------5-|
G|-6-------------6------------|
D|----------------------------|
A|----------------------------|
D|----------------------------|

GUITAR 2

E|------X-X-X-----------------|
B|------0-0-0-----------------|
G|-6-6--2-2-2-----------------|
D|-6-6--2-2-2--2-2--6-6-6-----|
A|-4-4--0-0-0--2-2--6-6-6-----|
D|------X-X-X--2-2--6-6-6-----|
Tap to rate this tab
# A B C D E F G H I J K L M N O P Q R S T U V W X Y Z