Song name
# A B C D E F G H I J K L M N O P Q R S T U V W X Y Z

Hakan Hellstrom - Uppsnarjd I Det Bla tab

-------------------------------------------------------------------------------
			     UPPSNÄRJD I DET BLÅ - Håkan Hellström
-------------------------------------------------------------------------------
Tabbed by: Mathias_705
Email: mafr90@hotmail.com

Tuning: Standard

The intro & main riff for the song "Uppsnärjd i det blå" by Håkan Hellström. Please
me for feedback or if you notice any errors, thanks :-)

e--------------------------5-5h5-3-3---------------5-5h5-3-5-3------|
B-3-3-3-3------------3-3-5-------------------3-3-5--------------5-3-|
G---------5-4---5-5------------------4---5-5------------------------|
D-------------------------------------------------------------------|
A-------------------------------------------------------------------|
E-------------------------------------------------------------------|

e-----------5-5h5-3-3--5/8-8--5-5-3-3-----------------------|
B-----3-3-5---------------------------5-5-3-3---------------|
G-5-5-----------------------------------------5-5-4-5-(4-5)-|
D-----------------------------------------------------------|
A-----------------------------------------------------------|
E-----------------------------------------------------------|

(woo!)

e-------------3---------------1----------------8--5--3-----|
B---------3-5-------------3-5-------------3-5----------5-3-|
G-----3-5-------------3-5-------------3-5------------------|
D-5-7-------------5-7-------------5-7----------------------|
A----------------------------------------------------------|
E----------------------------------------------------------|

e-------------3---------------1----------------4-4h4-4-4-4-1---|
B---------3-5-------------3-5-------------3-5----------------2-|
G-----3-5-------------3-5-------------3-5----------------------|
D-5-7-------------5-7-------------5-7--------------------------|
A--------------------------------------------------------------|
E--------------------------------------------------------------|


| /  slide up
| \  slide down
| h  hammer-on
| p  pull-off
| ~  vibrato
| +  harmonic
| x  Mute note
===============================================================================
Tap to rate this tab
 
# A B C D E F G H I J K L M N O P Q R S T U V W X Y Z