Song name
# A B C D E F G H I J K L M N O P Q R S T U V W X Y Z

Hakan Sunar - Summer Rain tab

Hakan Sunar - Summer Rain
(tabbed by nuageux)

Standard Tuning

e|----------------|-----0----0------|-----------------|-------------------|
B|-----5---5------|-------2-----2---|----2----2-------|-0--------0--------|
G|-------6---6----|-----------------|-------2----2----|----1---1----------|
D|---6--6-6-6-----|---2--2-2--2-----|-----------------|------2------------|
A|-4--------------|-0---------------|---4-4--4--4-----|---2-2-2-2---------|
E|----------------|-----------------|-2---------------|-0-----------------|                 
        C#m                 A              F#m              E        

e|----------------|-----0----0------|-----------------|-------------------|
B|-----5---5------|-------2-----2---|----2-2---2-2----|-0--------0--------|
G|-------6---6----|-----------------|----------------2|----1---1----------|
D|---6--6-6-6-----|---2--2-2--2-----|-----------------|------2------------|
A|-4--------------|-0---------------|---4--4-4-4---4-4|---2-2---2---------|
E|----------------|-----------------|-2---------------|-0-----------------|                 
        C#m                 A              F#m              E        

This pattern is till 01:20

Have fun!
Tap to rate this tab
 
# A B C D E F G H I J K L M N O P Q R S T U V W X Y Z