Song name
# A B C D E F G H I J K L M N O P Q R S T U V W X Y Z

Hale - Here Tonight chords

Highlighted       Show chord diagrams
Hmm.. my first submitted tab.. i know the chords are right.. but wasn't too sure what the chords
 were called.. so please refer to the beginning as like a key.. as i my have bluffed some of the 
names of the chords.. but you get the idea..  if anyone knows what their actually 
called feel free to 
email me the correct names lol.. the ones i bluffed were the F# and the Em/G not sure it they are 
actually called that. 


CAPO on 5th Fret  

      G      F#     Em/G    D      C7
E |----3------3------3------2------3
B |----3------3------3------3------3
G |----0------0------0------2------0
D |----0------0------2------0------2
A |----2------0------2------x------3
E |----3------2------0------x------x

Intro 
       G      F#     Em/G     C7*?~         
E |----3------3------3------3-3-3-3-3-3--|
B |----3------3------3------3-3-3-3-3-3--|
G |----0------0------0------0-0-0-0-0-0--|
D |----0------0------2------0-0-0-0-0-0--|
A |----2------0------2------3-2-3-2-3-2--|
E |3---3--2---2---0--0------x-x-x-x-x-x--|


Verse1:

   G      F#    Em/G        D    
     So long, to you, my love
          C7     G         Am   Dsus4 D          
     Don't be, afraid to runaway
    G      F#    Em/G        D 
     I know, you'll be, okay
            C7     G               Am   D  
     Just take you're time to find


CHORUS:
                G                       F#
     But/Cause I need you here tonight
        Am                    C7
     I need you here inside
       G                       F#
     I need you here tonight
        Am                      C7pause)          G-F#-Am-C7*?~
     I really, really need you here,           tonight


 Verse2: (repeat verse chords)
     
     Made up my mind on this
     It's too late for me to hold you back
     Maybe too short or tall to cry for you
     But I will anyway

(REPEAT CHORUS)

Verse3: (repeat verse chords)

     It's all my fault, to feel this way
     For you that day
     I know that I am, and I will
     Always wrong, so wrong, so wrong
Tap to rate this tab
 
# A B C D E F G H I J K L M N O P Q R S T U V W X Y Z