Guitaretab - guitar tabs
Song name
# A B C D E F G H I J K L M N O P Q R S T U V W X Y Z

Halifax - Nightmare tab

(Starts With Heavy Drums And Bass)

E--12--7--10-------10--12--7-------|
B----------------------------------|
G----------------------------------|
D----------------------------------|  x2   (Intro)
A----------------------------------|
E----------------------------------|

E--------------------------------------------|
B--17oo12oo15oo10oo12o8o10oo7oo8oo10oo8o7o---|
G--------------------------------------------|
D--------------------------------------------|  x3   (Intro Two)
A--------------------------------------------|
E--------------------------------------------|

E--------------------------------------------|
B--------------------------------------------|
G--------------------------------------------|
D--2----5^7--2----7^5--2----5^7----9--7-5-4--|  x2   (Riff)
A--2----5 7--2----7 5--2----5 7----9--7-5-4--|
E--0-00-3 5--0-00-5 3--0-00-3 5----7--5-3-2--|
    (PM)      (PM)      (PM)

E------------------------------------------------------------------|
B------------------------------------------------------------------|
G------------------------------------------------------------------|
D--222-2-2-5-2-22--222-2-2-5-2-22--222-2-2-5-2-22-999-777-555-444--|  x3(Verse)
A--222-2-2-5-2-22--222-2-2-5-2-22--222-2-2-5-2-22-999-777-555-444--|
E--000-0-0-3-0-00--000-0-0-3-0-00--000-0-0-3-0-00-777-555-333-222--|
  (---PM--) (-----PM------) (-----PM------) (---------PM-----------|

E--------------------------------------------------|
B--------------------------------------------------|
G--------------------------------------------------|
D--222-2-2-5-2-22--222-2-2-5-2-22--2----22222222---|  x1   (End Of Verse)
A--222-2-2-5-2-22--222-2-2-5-2-22--2----22222222---|
E--000-0-0-3-0-00--000-0-0-3-0-00--0----00000000---|
  (---PM--) (-----PM-------------------------------| (-PM-)

E--------------------------------------------|
B--------------------------------------------|
G--------------------------------------------|
D--2----5^7--2----7^5--2----5^7----9--7-5-4--|  x2   (Riff)
A--2----5 7--2----7 5--2----5 7----9--7-5-4--|
E--0-00-3 5--0-00-5 3--0-00-3 5----7--5-3-2--|
    (PM)      (PM)      (PM)

E------2~--3~---------2~--3~-----|
B------3~--0~---------3~--0~-----|
G------2~--0~--2~-----2~--0~--2--|
D--2~--0~--0~--2~-2~--0~--0~--2--|  x1   (Chorus)
A--2~------2~--0~-2~------2~--0--|
E--0~------3~-----0~------3~-----|
[ Tab from: http://www.guitaretab.com/h/halifax/144487.html ]
E--------------------------------------------|
B--------------------------------------------|
G--------------------------------------------|
D--2----5^7--2----7^5--2----5^7----9--7-5-4--|  x2   (Riff)
A--2----5 7--2----7 5--2----5 7----9--7-5-4--|
E--0-00-3 5--0-00-5 3--0-00-3 5----7--5-3-2--|
    (PM)      (PM)      (PM)

E------------------------------------------------------------------|
B------------------------------------------------------------------|
G------------------------------------------------------------------|
D--222-2-2-5-2-22--222-2-2-5-2-22--222-2-2-5-2-22-999-777-555-444--|  x3(Verse)
A--222-2-2-5-2-22--222-2-2-5-2-22--222-2-2-5-2-22-999-777-555-444--|
E--000-0-0-3-0-00--000-0-0-3-0-00--000-0-0-3-0-00-777-555-333-222--|
  (---PM--) (-----PM------) (-----PM------) (---------PM-----------|

E--------------------------------------------------|
B--------------------------------------------------|
G--------------------------------------------------|
D--222-2-2-5-2-22--222-2-2-5-2-22--2----22222222---|  x1   (End Of Verse)
A--222-2-2-5-2-22--222-2-2-5-2-22--2----22222222---|
E--000-0-0-3-0-00--000-0-0-3-0-00--0----00000000---|
  (---PM--) (-----PM-------------------------------| (-PM-)

E--------------------------------------------|
B--------------------------------------------|
G--------------------------------------------|
D--2----5^7--2----7^5--2----5^7----9--7-5-4--|  x2   (Riff)
A--2----5 7--2----7 5--2----5 7----9--7-5-4--|
E--0-00-3 5--0-00-5 3--0-00-3 5----7--5-3-2--|
    (PM)      (PM)      (PM)

E------2~--3~---------2~--3~-----|
B------3~--0~---------3~--0~-----|
G------2~--0~--2~-----2~--0~--2--|
D--2~--0~--0~--2~-2~--0~--0~--2--|  x1   (Chorus)
A--2~------2~--0~-2~------2~--0--|
E--0~------3~-----0~------3~-----|

(Solo #1 - Not Transcribed In This Post)

E--------------------------------------------|
B--------------------------------------------|
G--------------------------------------------|
D--2----5^7--2----7^5--2----5^7----9--7-5-4--|  x4   (Riff)
A--2----5 7--2----7 5--2----5 7----9--7-5-4--|
E--0-00-3 5--0-00-5 3--0-00-3 5----7--5-3-2--|
    (PM)      (PM)      (PM)

E--------------------------------------------------------|
B--------------------------------------------------------|
G--------------------------------------------------------|
D--2----5^7--2----7^5--2----5^7----9--7-5-4--2-2-2-2-2~--|  x1 (Outro)
A--2----5 7--2----7 5--2----5 7----9--7-5-4--2-2-2-2-2~--|
E--0-00-3 5--0-00-5 3--0-00-3 5----7--5-3-2--0-0-0-0-0~--|
    (PM)      (PM)      (PM)

(Outro Solo - Not Transcribed In This Post)

Legend:
 ~ = Let It Ring
PM = Palm Mute

Tab Made By: speedkills_31@hotmail.com

If You Have Either Of The Solo's Please E-Mail
Them To Me And Ill Make Sure You Get The Credit, Or If You Have Any Suggestions Or There 
Something Done Wrong In The Song E-Mail Me And Ill Fix It A.S.A.P... Thanks!
Related for Nightmare tab