Song name
# A B C D E F G H I J K L M N O P Q R S T U V W X Y Z

Hallo Venray - Captain tab

-------------------------------------------------------------------------------
			     The Captain - Hallo Venray
-------------------------------------------------------------------------------
Tabbed by: Vincent
Email:Vincent Oude Lansink

Tuning:normal

Guitar 1 plays the chords: C(81010988), Bb(688766), F(x68886), C (81010988)

Guitar 2:
The high chords
e|---8-8---6-6---13-13----8-8-----|
B|---8-8---6-6---13-13----8-8-----|
G|---9-9---7-7---14-14----9-9-----|
     C     Bb    F        C
Solo

e|-----------------------------------------------------------------|
B|---/8---------/8-----/10-----------------------------------------|
G|-------9---------9-------12--9--/10--9---12\10---7/9~~~~\----x2--|
D|----------10-----------------------------------------------------|
A|-----------------------------------------------------------------|
E|-----------------------------------------------------------------|

Outro:
C, G(x1012121210), C, G, C, G, F, F, C(end with one strum)
Tap to rate this tab
# A B C D E F G H I J K L M N O P Q R S T U V W X Y Z