Song name
# A B C D E F G H I J K L M N O P Q R S T U V W X Y Z

Hamfatter - The Girl I Love tab

The Girl I Love - Hamfatter 

 A                                E     
e|---------------------------------------------------------------------------|
B|---------------------------------------------------------------------------|
G|---------------------------------------------------------------------------|
D|---------------------------------------------------------------------------|
A|-0-0-0-0-0-0-0-0-0-0-0-0-0-0-0-0-------------------------------------------|
E|---------------------------------2-2-2-2-2-2-2-2-2-2-2-2-2-2-4-4-----------|

  A                                E 
e|---------------------------------------------------------------------------|
B|---------------------------------------------------------------------------|
G|---------------------------------------------------------------------------|
D|---------------------------------------------------------------------------|
A|-0-0-0-0-0-0-0-0-0-0-0-0-0-4-4-4-------------------------------------------|
E|---------------------------------2-2-2-2-2-2-2-2-2-2-2-2-2-4-4-4-----------|


  A                                E 
e|---------------------------------------------------------------------------|
B|---------------------------------------------------------------------------|
G|---------------------------------------------------------------------------|
D|---------------------------------------------------------------------------|
A|-0-0-0-0-0-0-0-0-0-0-0-0-0-4-4-4-------------------------------------------|
E|---------------------------------2-2-2-2-2-2-2-2-2-2-2-2-2-4-4-4-----------|
Tap to rate this tab
# A B C D E F G H I J K L M N O P Q R S T U V W X Y Z