Guitaretab - guitar tabs
Song name
# A B C D E F G H I J K L M N O P Q R S T U V W X Y Z

Hammerfall - Natural High tab

song: NATURAL HIGH
artist HAMMERFALL
album: THRESHOLD
tabbed by abhammer

try to listen de song and follow the tap and the lyrics and it will be a lot easier to 
this song

intro
|-----------------------------------------------------------------------|
|-----------------------------------------------------------------------|
|-------------------------9---------------------------------------------|
|----10-9---------------9---9----------9-7-5-------------5-9------------|
|-7--------10-7-----------------------------------------------10--------|
|--------------------------------7---------------7----------------------|x2

Last nigth i had a vivid dream
I found a place where nothing is what its seems,
Iím bound to walk this earth alone,
I am a hunter and the heir to the throne,
|--------------------------------------------------------------------------------------|
|--------------------------------------------------------------------------------------|
|---9--9--------9--------9-9--------9--------------------------------------------------|
|---9--9--------9--------9-9--------9--------9-9------9------9-9--------9--------------|
|---7--7---7-7--7--7-7---7-7----7-7-7--7--7--9-9------9------9-9--------9--------------|
|--------------------------------------------7-7-7-7--7-7-7--7-7-7-7--7-7-7------------|x4

|-------------------------------------------------------------|
|-------------------------------------------------------------|
|-------------------------------------------------------------|
|--7----------5-----------------------------------------------|
|--7----------5-----------------------------------------------|
|--5--5--5----3--3--3-----------------------------------------|

The chase of blood and sweet revenge,
It keeps on hammering in my head,
The urge to kill is getting stronger,
Iím south of heaven, north of hell,

|-------------------------------------------------------------------------------|
|-------------------------------------------------------------------------------|
|-------------------------------------------------------------------------------|
|-2--------------5-2--------------5-2--------------5-5-7------------------------|
|-2--------------5-2--------------5-2--------------5-5-7------------------------|
|-0-0-0-0-0-0-0--3-0-0-0-0-0-0-0--3-0-0-0-0-0-0-0--3-3-5------------------------|
|-------------------------------------------------------------------------------|
|-------------------------------------------------------------------------------|
|-------------------------------------------------------------------------------|
|-2--------------5-2--------------5-2--------------5-4-3------------------------|
|-2--------------5-2--------------5-2--------------5-4-3------------------------|
|-0-0-0-0-0-0-0--3-0-0-0-0-0-0-0--3-0-0-0-0-0-0-0--3-2-1------------------------|  /
play twice


My final place to reeeeeest,
|----------------------------------------------------------------|
|----------------------------------------------------------------|
|----------------------7-----------------------------------------|
|--2----------------(2)7-----------------------------------------|
|--2----------------(2)5-----------------------------------------|
|--0----------------(0)------------------------------------------|

Surrender your soul,  Surrender your pride, Please enter my dream,
|---------------------------------------------------------------------------------------|
|---------------------------------------------------------------------------------------|
|---------(7)----------------------------9-----------------(9)--------------------------|
|---------(7)--7--------------------(7)--9-----------------(9)--9-----------------------|
|---------(5)--7--------------------(7)--7-----------------(7)--9-----------------------|
|--------------5--------------------(5)-------------------------7-----------------------|
[ Tab from: http://www.guitaretab.com/h/hammerfall/158315.html ]
 Find your natural high, Youíve got nothing to fear,  Cause your rebirth
|-------------------------------------------------------------------------------------|
|-------------------------------------------------------------------------------------|
|----------7---7-------------------------------(7)------------------------------------|
|-7----5---7---7-------------------------------(7)7------------------(7)--------------|
|-7----5---5---5-------------------------------(5)7------------------(7)--------------|
|-5----3------------------------------------------5------------------(5)--------------|
iiiiiiiiiiiiiiiiiiiiiiiiiiiiiiiis neeeeeeeeeeeeeeeeaaaaar,
|---------------------------------------------------------------------------------------|
|---------------------------------------------------------------------------------------|
|---------------------------------------------------------------------------------------|
|------------------------5-2---------------52-------------------------------------------|
|------------------------5-2---------------52-------------------------------------------|
|-----0-0-0-0-0-0-0-0-0--3-0-0-0-0-0-0-0-0-30-------------------------------------------|

(no lyrics)
|-------------------------------------------------------------------|
|-------------------------------------------------------------------|
|-------------------------9-----------------------------------------|
|----10-9---------------9---9----------9-7-5-------------5-9--------|
|-7--------10-7------------------------------------------------10---|
|--------------------------------7---------------7------------------|x2


The battle rages deep inside,
No where to run for my eternal bride,
And when the darkness comes around,
I come alive, cause for your sweet blood I am bound,
|--------------------------------------------------------------------------------------|
|--------------------------------------------------------------------------------------|
|---9--9--------9--------9-9--------9--------------------------------------------------|
|---9--9--------9--------9-9--------9--------9-9------9------9-9--------9--------------|
|---7--7---7-7--7--7-7---7-7----7-7-7--7--7--9-9------9------9-9--------9--------------|
|--------------------------------------------7-7-7-7--7-7-7--7-7-7-7--7-7-7------------|x4

|---------------------------------------------------|
|---------------------------------------------------|
|---------------------------------------------------|
|--7----------5-------------------------------------|
|--7----------5-------------------------------------|
|--5--5--5----3--3--3-------------------------------|


I taste your blood so bitter sweet,
Come ease my pain get on your knees,
You know throughout is meant to be,
Forever missed out what it seems,
|------------------------------------------------------------------------------------|
|------------------------------------------------------------------------------------|
|------------------------------------------------------------------------------------|
|-2--------------5-2--------------5-2--------------5-5-7-----------------------------|
|-2--------------5-2--------------5-2--------------5-5-7-----------------------------|
|-0-0-0-0-0-0-0--3-0-0-0-0-0-0-0--3-0-0-0-0-0-0-0--3-3-5-----------------------------|

|------------------------------------------------------------------------------------|
|------------------------------------------------------------------------------------|
|------------------------------------------------------------------------------------|
|-2--------------5-2--------------5-2--------------5-4-3-----------------------------|
|-2--------------5-2--------------5-2--------------5-4-3-----------------------------|
|-0-0-0-0-0-0-0--3-0-0-0-0-0-0-0--3-0-0-0-0-0-0-0--3-2-1-----------------------------|
plays x2

This is your final screaaaaaaaa
|------------------------------------------------------------|
|------------------------------------------------------------|
|--------------------------7---------------------------------|
|--2--------------------(2)7---------------------------------|
|--2--------------------(2)5---------------------------------|
|--0--------------------(0)----------------------------------|
Surrender your soul,  Surrender your pride, Please enter my dream,
|--------------------------------------------------------------------------------------|
|--------------------------------------------------------------------------------------|
|-----------(7)-------------------------9-----------------(9)--------------------------|
|-----------(7)--7-----------------(7)--9-----------------(9)--9-----------------------|
|-----------(5)--7-----------------(7)--7-----------------(7)--9-----------------------|
|----------------5-----------------(5)-------------------------7-----------------------|

 Find your natural high, Youíve got nothing to fear,  Cause your rebirth
|--------------------------------------------------------------------------------------|
|--------------------------------------------------------------------------------------|
|----------7---7-----------------------------(7)---------------------------------------|
|-7----5---7---7-----------------------------(7)7----------------------(7)-------------|
|-7----5---5---5-----------------------------(5)7----------------------(7)-------------|
|-5----3----------------------------------------5----------------------(5)-------------|
iiiiiiiiiiiiiiiiiiiiiiiiiiiiiiiis neeeeeeeeeeeeeeeeaaaaar,
|----------------------------------------------------------------------------------|
|----------------------------------------------------------------------------------|
|----------------------------------------------------------------------------------|
|------------------------5-2---------------5-2-------------------------------------|
|------------------------5-2---------------5-2-------------------------------------|
|-----0-0-0-0-0-0-0-0-0--3-0-0-0-0-0-0-0-0-3-0-------------------------------------|
Related for Natural High tab