Song name
# A B C D E F G H I J K L M N O P Q R S T U V W X Y Z

Hammerfall - Hearts On Fire tab

#----------------------------------PLEASE NOTE---------------------------------#
#This file is the author's own work and represents their interpretation of the #
#song. You may only use this file for private study, scholarship, or research. #
#------------------------------------------------------------------------------#

HEARTS ON FIRE
As recorded by HammerFall
(From the 2003 Album CRIMSON THUNDER)


Transcribed by Ivan - (peekaboo104@hotmail.com)

 Words and Music by Joacin Cans, Stefan Elmgren, Oscar Dronjak, Magnus Rosen and Aders Johanson

 

Gtr I (Eb Ab Db Gb Bb Eb) - 'Stefan Elmgren'
Gtr II (Eb Ab Db Gb Bb Eb) - 'Oscar Dronjak'


 Intro
  Moderately Fast Q=95
  G5
 4/4
  Gtr II
      PM|   PM--|   PM--|   PM      PM--|   PM----------|   PM
  E S S S S S S S S S S S S S S   E S S S S S S S S S S S S S S
|-------------------------------|-------------------------------|
|-------------------------------|-------------------------------|
|-------------------------------|-------------------------------|
|---------5---------------------|---------5-------------------3-|
|-5---------------5-------6---3-|-5---------------5-------6-----|
|-3-3-3-3---3-3-3---3-3-3---3---|---3-3-3---3-3-3---3-3-3---3---|
|
| Gtr I
| E E   Q       H                 W
|-------------------------------|-------------------------------|
|-------------------------------|-------------------------------|
|-------------------------------|-------------------------------|
|-------------------------------|-------------------------------|
|-5-5---------------------------|-------------------------------|
|-3-3---------------------------|-------------------------------|


                                  D5                        C5
      PM|   PM--|   PM--|   PM        PM|   PM--|   PM  PM
  E S S S S S S S S S S S S S S   E S S S S S S S S S S S S E
|-------------------------------|-----------------------------|
|-------------------------------|-----------------------------|
|-------------------------------|-----------------------------|
|---------5---------------------|-7-7-----7-------7---7---7-5-|
|-5-5-------------5-------6---3-|-5-5-5-5-5-5-5-5-5-5-5-5-5-3-|
|-3-3-3-3---3-3-3---3-3-3---3---|-----------------------------|
|
| E E   Q       H                 Q     Q       H
|-------------------------------|-----------------------------|
|-------------------------------|-----------------------------|
|-------------------------------|-----------------------------|
|-------------------------------|-7---------------------------|
|-5-5---------------------------|-5---------------------------|
|-3-3---------------------------|-----------------------------|


  G5
      PM|   PM--|   PM--|     PM          PM--|   PM----------|   PM
  E S S S S S S S S S S S  S  S  S     E  S S S S S S S S S S S S S S
|-----------------------------------|---------------------------------|
|-----------------------------------|---------------------------------|
|-----------------------------------|---------------------------------|
|---------5-------------------------|-----------5-------------------3-|
|-5---------------5--------6-----3--|--5----------------5-------6-----|
|-3-3-3-3---3-3-3---3-3-3-----3-----|-----3-3-3---3-3-3---3-3-3---3---|
|
|                                      ~~~
| E E   Q       Q       S  E     S     E  E   Q       H
|-----------------------------------|---------------------------------|
|-----------------------------------|---------------------------------|
|-----------------------------------|---------------------------------|
|-----------------------------------|---------------------------------|
|-5-5---------------------[6]---[3]-|-[5]-----------------------------|
|-3-3-------------------------------|---------------------------------|


                                  D5                        C5
      PM|   PM--|   PM--|   PM        PM|   PM--|   PM  PM
  E S S S S S S S S S S S S S S   E S S S S S S S S S S S S E
|-------------------------------|-------------------------------||
|-------------------------------|-------------------------------||
|-------------------------------|-------------------------------||
|---------5---------------------|-7-7-----7-------7---7---7-5---||
|-5-5-------------5-------6---3-|-5-5-5-5-5-5-5-5-5-5-5-5-5-3---||
|-3-3-3-3---3-3-3---3-3-3---3---|-------------------------------||
|
| E E   Q       H                 Q     Q       H
|-------------------------------|-------------------------------||
|-------------------------------|-------------------------------||
|-------------------------------|-------------------------------||
|-------------------------------|-7-----------------------------||
|-5-5---------------------------|-5-----------------------------||
|-3-3---------------------------|-------------------------------||


   1st and 2nd Verses
    G5                                        D5                        C5
                                                  PM|   PM--|   PM  PM
    E E Q  H      E E Q  H      E E Q  H      E S S S S S S S S S S S S E
||--------------|-------------|-------------|-------------------------------|
||o-------------|-------------|-------------|-------------------------------|
||--------------|-------------|-------------|-------------------------------|
||--------------|-------------|-------------|-7-7-----7-------7---7---7-5---|
||o-5-5---------|-5-5---------|-5-5---------|-5-5-5-5-5-5-5-5-5-5-5-5-5-3---|
||--3-3---------|-3-3---------|-3-3---------|-------------------------------|
|
|   E E Q  H      E E Q  H      E E Q  H      H             H
||--------------|-------------|-------------|-------------------------------|
||o-------------|-------------|-------------|-------------------------------|
||--------------|-------------|-------------|-------------------------------|
||--------------|-------------|-------------|-7-----------------------------|
||o-5-5---------|-5-5---------|-5-5---------|-5-----------------------------|
||--3-3---------|-3-3---------|-3-3---------|-------------------------------|


  G5
      PM------------------------|           PM----------------------|
  E S S S S S S S S S S S  S  S  S     E  S S S S S S S S S S S S S S
|-----------------------------------|---------------------------------|
|-----------------------------------|---------------------------------|
|-----------------------------------|---------------------------------|
|-----------------------------------|---------------------------------|
|-5-5-------------------------------|--5--5---------------------------|
|-3-3-3-3-3-3-3-3-3-3-3-3--3--3--3--|--3--3-3-3-3-3-3-3-3-3-3-3-3-3-3-|
|
|                                      ~~~
| E E   Q       Q       S  E     S     E  E   Q       H
|-----------------------------------|---------------------------------|
|-----------------------------------|---------------------------------|
|-----------------------------------|---------------------------------|
|-----------------------------------|---------------------------------|
|-5-5---------------------[6]---[3]-|-[5]-----------------------------|
|-3-3-------------------------------|---------------------------------|


                                  D5                        C5
      PM----------------------|       PM|   PM--|   PM  PM
  E S S S S S S S S S S S S S S   E S S S S S S S S S S S S E
|-------------------------------|-------------------------------||
|-------------------------------|-------------------------------||
|-------------------------------|-------------------------------||
|-------------------------------|-7-7-----7-------7---7---7-5---||
|-5-5---------------------------|-5-5-5-5-5-5-5-5-5-5-5-5-5-3---||
|-3-3-3-3-3-3-3-3-3-3-3-3-3-3-3-|-------------------------------||
|
| E E   Q       H                 H             H
|-------------------------------|-------------------------------||
|-------------------------------|-------------------------------||
|-------------------------------|-------------------------------||
|-------------------------------|-7-----------------------------||
|-5-5---------------------------|-5-----------------------------||
|-3-3---------------------------|-------------------------------||


 Pre-Chorus
  A5                    C5 B5  F5                    C5 B5
      PM|   PM|     PM|            PM|   PM|     PM|
  E S S S S S S E S S S  S E   E S S S S S S E S S S  S E
|----------------------------|----------------------------|
|----------------------------|----------------------------|
|----------------------------|----------------------------|
|----------------------------|----------------------------|
|-7-7-----7-----7-7-----10-9-|-3-3-----3-----3-3-----10-9-|
|-5-5-5-5-5-5-5-5-5-5-5--8-7-|-1-1-1-1-1-1-1-1-1-1-1--8-7-|


  A5                    C5 B5  F5            D5
      PM|   PM|     PM|            PM|     PM
  E S S S S S S E S S S  S E   E S S S S S S H
|----------------------------|--------------------||
|----------------------------|--------------------||
|----------------------------|--------------------||
|----------------------------|---------------7----||
|-7-7-----7-----7-7-----10-9-|-3-3-----3-3---5----||
|-5-5-5-5-5-5-5-5-5-5-5--8-7-|-1-1-1-1-1-1-1------||


 Chorus
  A5                                C5    B5
 4/4
    PM  PM|   PM|   PM  PM|   PM|
  S S S S S S S S S S S S S S S S    H    H
|---------------------------------|------------|
|---------------------------------|------------|
|---------------------------------|------------|
|---------------------------------|------------|
|-7---7-----7-----7---7-----7---5-|-10----9----|
|-5-5-5-5-5-5-5-5-5-5-5-5-5-5-5-5-|--8----7----|


  A5                                C5    B5
    PM  PM|   PM|   PM  PM|   PM|
  S S S S S S S S S S S S S S S S    H    H
|---------------------------------|------------|
|---------------------------------|------------|
|---------------------------------|------------|
|---------------------------------|------------|
|-7---7-----7-----7---7-----7---5-|-10----9----|
|-5-5-5-5-5-5-5-5-5-5-5-5-5-5-5-5-|--8----7----|


  A5                                C5    B5     C5    B5
    PM  PM|   PM|   PM  PM|   PM|
  S S S S S S S S S S S S S S S S    H    H       H    q  Q
|---------------------------------|------------|--------------||
|---------------------------------|------------|--------------||
|---------------------------------|------------|--------------||
|---------------------------------|------------|--------------||
|-7---7-----7-----7---7-----7---5-|-10----9----|-10----9------||
|-5-5-5-5-5-5-5-5-5-5-5-5-5-5-5-5-|--8----7----|--8----7------||


 Guitar Break
  1.
  G5
 4/4
  Gtr I
      PM|   PM--|   PM--|   PM      PM--|   PM----------|   PM
  E S S S S S S S S S S S S S S   E S S S S S S S S S S S S S S
|-------------------------------|-------------------------------|
|-------------------------------|-------------------------------|
|-------------------------------|-------------------------------|
|---------5---------------------|---------5-------------------3-|
|-5---------------5-------6---3-|-5---------------5-------6-----|
|-3-3-3-3---3-3-3---3-3-3---3---|---3-3-3---3-3-3---3-3-3---3---|
|
| Gtr II
| E E   Q       H                 W
|-------------------------------|-------------------------------|
|-------------------------------|-------------------------------|
|-------------------------------|-------------------------------|
|-------------------------------|-------------------------------|
|-5-5---------------------------|-------------------------------|
|-3-3---------------------------|-------------------------------|


                                  D5                        C5
      PM|   PM--|   PM--|   PM        PM|   PM--|   PM  PM
  E S S S S S S S S S S S S S S   E S S S S S S S S S S S S E
|-------------------------------|------------------------------||
|-------------------------------|-----------------------------o||
|-------------------------------|------------------------------||
|---------5---------------------|-7-7-----7-------7---7---7-5--||
|-5-5-------------5-------6---3-|-5-5-5-5-5-5-5-5-5-5-5-5-5-3-o||
|-3-3-3-3---3-3-3---3-3-3---3---|------------------------------||
|
| E E   Q       H                 Q     Q       H
|-------------------------------|------------------------------||
|-------------------------------|-----------------------------o||
|-------------------------------|------------------------------||
|-------------------------------|-7----------------------------||
|-5-5---------------------------|-5---------------------------o||
|-3-3---------------------------|------------------------------||


 Guitar Solo - S.Elmgren
  2.
  D5                                        Bb5                      C5
 4/4
  Gtr I
    ~~~~                                                               ~~~~~~~~~~~~~~~~
    H              E E   +Q           a      +E   S  S  S  S  +S   S   H
|----------------------------------|--------------------------------------------------|
|-[15]-------------5-6---(6)-------|-13b15==(13)-13-13-13-13r(13)p11-[13]-------------|
|------------------7-7---(7)-------|--------------------------------------------------|
|----------------------------------|--------------------------------------------------|
|----------------------------------|--------------------------------------------------|
|----------------------------------|--------------------------------------------------|
|
| Gtr II
|        PM|   PM|     PM|     PM|                   PM|       PM-|         PM|   PM|
|   E  S S S S S S E S S  S  S S S            E   S  S  S  S   S   S   E  S S S S S S
|----------------------------------|--------------------------------------------------|
|----------------------------------|--------------------------------------------------|
|----------------------------------|--------------------------------------------------|
|---7--7-----7-----7-7-------7-----|----------3---3--------3-----------5--5-----5-----|
|---5--5-5-5-5-5-5-5-5-5--5--5-5-5-|----------1---1--1--1--1---1---1---3--3-3-3-3-3-3-|
|----------------------------------|--------------------------------------------------|


  D5                                                 Bb5                 C5
 ~~~~~~~~~~~~~~~~~~~                  ~~~~
    Q      +S    E.      E  S  S  S   E.        a     +Q       E    S  S  E  S  S  Q
|--------------------------------------------|-15b17-(15)-----15---13-12-12-13-12-----------|
|-/15-----(15)-[15]-----------15----[15]-----|------------------------------------15--------|
|-----------------------17-17----17----------|----------------------------------------------|
|--------------------------------------------|----------------------------------------------|
|--------------------------------------------|----------------------------------------------|
|--------------------------------------------|----------------------------------------------|
|
|       PM|         PM|        PM|       PM|                PM|     PM|         PM|    PM|
|   E S S   S    S  S S  E  S  S  S   S  S S           E  S S  S S  S  S  E  S  S  S S S S
|--------------------------------------------|----------------------------------------------|
|--------------------------------------------|----------------------------------------------|
|--------------------------------------------|----------------------------------------------|
|---7-7----------7-------7--7---------7------|---------3--3------3--------5--5-------5------|
|---5-5-5---5----5--5-5--5--5--5--5---5--5-5-|---------1--1-1--1-1--1--1--3--3--3--3-3-3-3--|
|--------------------------------------------|----------------------------------------------|


  D5
 4/4
   |----------7----------|  |--------6---------|  |-------6--------|  |--------6---------|
   S  S  S  S    S  S    S  S  S    S  S  S    S  S  S  S  S  S    S  S  S    S  S  S    S
|-13h17p13--------------13-17p13------18p13------22p17------------17-22p17------20p17------|
|----------15------15--------------15---------15-------18----18--------------18---------18-|
|---------------14----------------------------------------19-------------------------------|
|------------------------------------------------------------------------------------------|
|------------------------------------------------------------------------------------------|
|------------------------------------------------------------------------------------------|
|
|                     PM---|           PM---|                   PM---|           PM---|
|  E          S       S     S    S     S    S     E        S    S     S    S     S    S
|------------------------------------------------------------------------------------------|
|------------------------------------------------------------------------------------------|
|------------------------------------------------------------------------------------------|
|--7----------7------------------7----------------7--------7---------------7---------------|
|--5----------5-------5-----5----5-----5----5-----5--------5----5-----5----5-----5----5----|
|------------------------------------------------------------------------------------------|


  Bb5                                       C5
   |-------6--------|  |--------6---------|  |-------6--------|  |--------6---------|
   S  S  S  S  S    S  S  S    S  S  S    S  S  S  S  S  S    S  S  S    S  S  S    S
|-20p18p17-18p17p==15-17p15p==13-15------------------------------------------------------|
|-----------------------------------18p==17-18p17p15-17p15p==13-15-----------------------|
|------------------------------------------------------------------17p==15-17p15p==14----|
|----------------------------------------------------------------------------------------|
|----------------------------------------------------------------------------------------|
|----------------------------------------------------------------------------------------|
|
|                PM---|           PM---|                   PM---|           PM---|
|  E        S    S     S    S     S    S     E        S    S     S    S     S    S
|----------------------------------------------------------------------------------------|
|----------------------------------------------------------------------------------------|
|----------------------------------------------------------------------------------------|
|--3--------3---------------3----------------5--------5---------------5------------------|
|--1--------1----1-----1----1-----1----1-----3--------3----3-----3----3-----3----3-------|
|----------------------------------------------------------------------------------------|


  D5
   ~~                           ~~~~
   H              Q      a     +Q
|----------------------------------------|
|----------------20-----20b22-(20)-------|
|-14-------------------------------------|
|----------------------------------------|
|----------------------------------------|
|----------------------------------------|
|
|      PM|   PM|      PM------|      PM|
|  E S S S S S S  E S S         S  S S S
|----------------------------------------|
|----------------------------------------|
|----------------------------------------|
|--7-7-----7------7-7--------------7-----|
|--5-5-5-5-5-5-5--5-5-5---------5--5-5-5-|
|----------------------------------------|


  Bb5                                       C5
   |-------6--------|  |--------6---------|  |-------5-------|  |--------5--------|
   S  S  S  S  S    S  S  S    S  S  S    S  S  S  S    S    S  S  S    S    S    S
|----17-------20----------------------------20---------------------------------------||
|-20----20p18------20p18---------20------------20p18---20p==18-17-18---17--------17--||
|------------------------19p==17----19p==17---------------------------------19-------||
|------------------------------------------------------------------------------------||
|------------------------------------------------------------------------------------||
|------------------------------------------------------------------------------------||
|
|                PM---|           PM---|                  PM---|          PM---|
|  E        S    S     S    S     S    S     E       S    S     S    S    S    S
|------------------------------------------------------------------------------------||
|------------------------------------------------------------------------------------||
|------------------------------------------------------------------------------------||
|--3--------3---------------3----------------5-------5---------------5---------------||
|--1--------1----1-----1----1-----1----1-----3-------3----3-----3----3----3----3-----||
|------------------------------------------------------------------------------------||


 Lead Break - S.Elmgren
  A5                                        F5
 4/4
   Q      +S   S  S  S  E  E    +Q           Q      +S   E.      E  S  S  S  S  S  S
|-----------------------------------------|------------------------------------------|
|-17-----(17)-17-15-13-15-17---(17)-------|-18-----(18)-18------20-20-18-18-17-17-15-|
|-----------------------------------------|------------------------------------------|
|-14-----(14)-14-12-10-12-14---(14)-------|-15-----(15)-15------17-17-15-15-14-14-12-|
|-----------------------------------------|------------------------------------------|
|-----------------------------------------|------------------------------------------|
|  Q      +S   S  S  S  E  E    +Q           Q      +S   E.      E  S  S  S  S  S  S
|
|      PM|        PM|        PM|      PM|        PM|        PM|        PM|      PM|
|  E S S   S   S  S  S  E  S S   S  S S S    E S S   S   S  S S  E  S  S  S  S  S  S
|-----------------------------------------|------------------------------------------|
|-----------------------------------------|------------------------------------------|
|-----------------------------------------|------------------------------------------|
|--7-7---------7--------7--7--------7-----|--3-3---------3-------3--3--------3-------|
|--7-7---------7--------7--7--------7-----|--3-3---------3-------3--3--------3-------|
|--5-5-5---5---5--5--5--5--5-5---5--5-5-5-|--1-1-1---1---1--1-1--1--1--1--1--1--1--1-|


  A5                                        F5               G5
   Q      +S   S  S  S  E  E    +Q           Q.          e    H
|-----------------------------------------|------------------------||
|-17-----(17)-17-15-13-15-17---(17)-------|-18----------17---15----||
|-----------------------------------------|------------------------||
|-14-----(14)-14-12-10-12-14---(14)-------|-15----------14---12----||
|-----------------------------------------|------------------------||
|-----------------------------------------|------------------------||
|  Q      +S   S  S  S  E  E    +Q           Q.          e    H
|
|      PM|        PM|        PM|      PM|         PM|    PM|
|  E S S   S   S  S  S  E  S S   S  S S S    E  S S S S  S S  H
|-----------------------------------------|------------------------||
|-----------------------------------------|------------------------||
|-----------------------------------------|------------------------||
|--7-7---------7--------7--7--------7-----|--3--3-----3-------5----||
|--7-7---------7--------7--7--------7-----|--3--3-----3-------5----||
|--5-5-5---5---5--5--5--5--5-5---5--5-5-5-|--1--1-1-1-1--1-1--3----||


 Bass Break - M.Rosen
               E5
  Wx8          E E Q  H      W          E E Q  H      W          E E Q  H
|------------|-------------|----------|-------------|----------|-------------|
|------------|-------------|----------|-------------|----------|-------------|
|------------|-------------|----------|-------------|----------|-------------|
|------------|-9-----------|----------|-9-----------|----------|-9-----------|
|------------|-7-----------|----------|-7-----------|----------|-7-----------|
|------------|-------------|----------|-------------|----------|-------------|


  D5            E5                C5                B5A5
  E E Q  H      E E E E E E E E    S  S  S  S  E  S E E S Q
|-------------|-----------------|----------------------------||
|-------------|-----------------|----------------------------||
|-------------|-----------------|----------------------------||
|-7-----------|-9---9---9---9---|----------------------------||
|-5-----------|-7---7---7---7---|-10-10-10-10-10-10-9-7------||
|-------------|-----------------|--8--8--8--8--8--8-7-5------||


 Outro-Chorus
  A5
    PM  PM|   PM|   PM  PM|   PM
  S S S S S S S S S S S S S S S S
|----------------------------------|
|----------------------------------|
|----------------------------------|
|----------------------------------|
|-7---7-----7-----7---7-----7------|
|-5-5-5-5-5-5-5-5-5-5-5-5-5-5-5-8--|


  C5    B5     A5
                 PM  PM|   PM|   PM  PM|   PM
   H    H      S S S S S S S S S S S S S S S S
|------------|---------------------------------|
|------------|---------------------------------|
|------------|---------------------------------|
|------------|---------------------------------|
|-10----9----|-7---7-----7-----7---7-----7-----|
|--8----7----|-5-5-5-5-5-5-5-5-5-5-5-5-5-5-5-8-|


  C5    B5     A5
                 PM  PM|   PM|   PM  PM|   PM
   H    H      S S S S S S S S S S S S S S S S
|------------|------------------------------------|
|------------|------------------------------------|
|------------|------------------------------------|
|------------|------------------------------------|
|-10----9----|-7---7-----7-----7---7-----7--------|
|--8----7----|-5-5-5-5-5-5-5-5-5-5-5-5-5-5-5-8----|


  C5    B5     C5    B5
   H    H       H    E E Q
|------------|--------------|
|------------|--------------|
|------------|--------------|
|------------|--------------|
|-10----9----|-10----9------|
|--8----7----|--8----7------|


  G5
      PM|   PM      PM|   PM        PM|   PM
  E S S S S S S E S S S S S S   E S S S S S S H
|-----------------------------|--------------------*|
|-----------------------------|--------------------*|
|-----------------------------|--------------------*|
|-----------------------------|--------------------*|
|-5-5-----6---3-5-5-----6---3-|-5-5-----6---3-5----*|
|-3-3-3-3---3---3-3-3-3---3---|-3-3-3-3---3---3----*|




--------------------------------------------------------------------------------


Duration Legend
---------------
W - whole; H - half; Q - quarter; E - 8th; S - 16th; T - 32nd; X - 64th; a - acciaccatura
+ - note tied to previous; . - note dotted; .. - note double dotted
Uncapitalized letters represent notes that are staccato (1/2 duration)
Irregular groupings are notated above the duration line
Duration letters will always appear directly above the note/fret number it represents the
duration for.  Duration letters with no fret number below them represent rests.  Multi-
bar rests are notated in the form Wxn, where n is the number of bars to rest for.  Low
melody durations appear below the staff

Tablature Legend
----------------
 h   - hammer-on
 p   - pull-off
 b   - bend
 pb  - pre-bend
 r   - bend release (if no number after the r, then release immediately)
 /\  - slide into or out of (from/to "nowhere")
 s   - legato slide
 S   - shift slide
 - natural harmonic
[n]  - artificial harmonic
n(n) - tapped harmonic
 ~   - vibrato
 tr  - trill
 T   - tap
 TP  - trem. picking
 PM  - palm muting
\n/  - tremolo bar dip; n = amount to dip
 \n  - tremolo bar down
 n/  - tremolo bar up
/n\  - tremolo bar inverted dip
 =   - hold bend; also acts as connecting device for hammers/pulls
 <> - volume swell (louder/softer)
 x   - on rhythm slash represents muted slash
 o   - on rhythm slash represents single note slash

Misc Legend
-----------
 |  - bar
||  - double bar
||o - repeat start
o|| - repeat end
*|  - double bar (ending)
 :  - bar (freetime)
 $  - Segno
 &  - Coda
Tempo markers -  = BPM(8/16=s8/s16), where s8 = swing 8ths, s16 = swing 16ths

Tap to rate this tab
# A B C D E F G H I J K L M N O P Q R S T U V W X Y Z