Song name
# A B C D E F G H I J K L M N O P Q R S T U V W X Y Z

Hammerfall - One Of A Kind tab

OK.Here we go:One of a kind-Hammerfall-No sacrifice,no victory.
It is a great song,written by Oscar Dronjak,Jesper Stomblad
and Joasim Cans.1st guitar is Pontus Nogren,2nd guitar is
Oscar Dronjak and Joasim cans is singing...Lets go:

Tab Key:

p=pull-off
b=bend
r=return bend
/=slide up
\=slide down
pm=palm mute
h=hammer-on
()=ghost note
X=dead note


So:


                     Intro:

e--------------------------------------------|
B--------------------------------------------|
G-------------------------------------10-----|
D------5b-------8-7-6-------5b----------8-7--|
A-5h7-5---8h10-8-------5h7-5----8h10-8-------|
E--------------------------------------------|

1st guitar repeats that 4 times.At the first time the second guitar plays nothing.At the 
time plays:
                                 e--------------------|
                                 B--------------------|
                                 G--------------------|
                                 D-9--8---------9--8--|
                                 A-9--8---------9--8--|
                                 E-7--6---------7--6--|
At the third and fourth  time plays the same with the 1st guitar


                        Verse:
1st guitar:

e--------------------------|
B--------------------------|
G--------------------------|
D-4-4-4-4-6-4-6-4-6-4-6----|
A--------------------------|
E----------------------x8--|be quick!

e---------------|
B---------------|
G---------------|
D-9---7-7-6-5---|
A-9---7-7-6-5---|
E-7---5-5-4-3x2-|

e--------------------------|
B--------------------------|
G--------------------------|
D-4-4-4-4-6-4-6-4-6-4-6----|
A--------------------------|
E----------------------x8--|be quick!

e------------     e----------|
B------------     B----------|
G------------     G----------|
D-9---7-7-6-5     D-7-7-6-5--|
A-9---7-7-6-5     A-7-7-6-5--|
E-7---5-5-4-3x2   E-5-5-4-3--|

2nd guitar:

e-----------|
B-----------|
G-----7-----|
D-9---7---7-|
A-9---5---7-|
E-7-------5-|x2

e---------------|
B---------------|
G---------------|
D-9---7-7-6-5---|
A-9---7-7-6-5---|
E-7---5-5-4-3x2-|

e-----------|
B-----------|
G-----7-----|
D-9---7---7-|
A-9---5---7-|
E-7-------5-|x2

e------------     e----------|
B------------     B----------|
G------------     G----------|
D-9---7-7-6-5     D-7-7-6-5--|
A-9---7-7-6-5     A-7-7-6-5--|
E-7---5-5-4-3x2   E-5-5-4-3--|

                  Chorus:
both guitars:

e-----------------|
B-----------------|
G-7-5-2-----8-5-2-|
D-7-5-2-6-9-8-5-2-|
A-5-3-0-6-9-6-3-0-|
E-------4-7-------|x2

                After Chorus:
1st guitar:


e-------------------|
B-------------------|
G-------------------|
D------5b-----8-7-6-|
A-5h7-5--8h10-------|
E-------------------|

2nd plays nothing

              Reprat Verse

              Repeat Chorus

              After Chorus:
1st guitar:


e-----------------------------|
B--------7-----------7--------|
G---6-7-8-8-7---6-7-8-8-7-7-6-|
D-5---------------------------|
A-5---------------------------|
E-3---------------------------|repeat that till the end of the 1st solo

2nd guitar:
                   1st Solo:

e-------8p-----------------------------------------------------|
B--8---8--8p----8----8-7---------8---------8-7-9-7-8-7p------8-|
G-7------------7----------------7---------7-----------------7--|
D--------------------------10-9p-----10-9p-------------9-10p---|
A--------------------------------------------------------------|
E--------------------------------------------------------------|

e-------------------------------------------|
B-7-9-7-8-7------8-7-9-7-8-7p--8-7-9-7-8-7p-|
G---------------7-------------7-------------|
D----------9-10p----------------------------|
A-------------------------------------------|
E-------------------------------------------|

e-----------------------------7-5-4----------------------|
B-9-10-10-9-9-7-7pm-9-10-9-7pm-----(7)-6-6-6-6-5-8-4-3pm-|
G--------------9-----------------------------------------|
D--------------------------------------------------------|
A--------------------------------------------------------|
E--------------------------------------------------------|

e-------------------------------------------|
B-7-7-7-6-6-6-5-5-5-4-2---7-7-7-6-6-6-5-5-5-|
G-------------------------------------------|
D-------------------------------------------|
A-------------------------------------------|
E-------------------------------------------|x3

e-5-7/-9-9-7-5-4pm-5-7-8\-5-5-4pm-|
B---------------------------------|
G---------------------------------|
D---------------------------------|
A---------------------------------|
E---------------------------------|x3

                    1st Bridge:
1st guitar

e--6-6-6-6-------|
B-6-6-6-6---7-7--|
G----------7-7---|
D----------------|
A----------------|
E----------------|x4


                 2nd Solo(Rythm):
2nd guitar:


e--------|
B--------|
G-6-7/-9-|
D-6-7/-9-|
A-4-5/-7-|
E--------|

e-------------------------------|
B-------------------------------|
G-------------------------------|
D-8---9---8---9---8---9---8---9-|
A-8---9---8-8-9---8---9---8-6-9-|
E-6-6-7---6-8-7---6-6-7---6-6-7-|repeat that till the end of the 2nd solo

                        2nd Bridge:
both guitars:

e---------    e---------------------------------|
B---------    B---------------------------------|
G-9---8---    G---------------------------------|
D-9-8-8-9-    D-------9-------9-------9-------7-|
A-7-8-6-9-    A-------9-------9-------9-------7-|
E---6---7-x2  E-7-7-7-7-7-7-7-7-7-7-7-7-7-7-7-5-|

e--------------------------------  e---|
B--------------------------------  B---|
G-9---8--------------------------  G---|
D-9-8-8-9------------------------  D-5-|
A-7-8-6-9--------7-----7-----7---  A-5-|
E---6---7----5-5-5-5-5-5-5-5-5-x2  E-3-|

                 After 2nd Bridge:
1st guitar:

e--------------------------------------------|
B--------------------------------------------|
G-------------------------------------10-----|
D------5b-------8-7-6-------5b----------8-7--|
A-5h7-5---8h10-8-------5h7-5----8h10-8-------|
E--------------------------------------------|x2

2nd guitar:

e-----------|
B-----------|
G-----------|
D-9-8---9-8-|
A-9-8---9-8-|
E-7-6---7-6-|only the second time

                  Repeat Chorus

                  After Chorus:

Both guitars:

e------------------------------------------|
B------------------------------------------|
G------------------------------------------|
D-------9-------9-------9-------9--8-7-5-4-|
A-------9-------9-------9-------9--8-7-5-4-|
E-7-7-7-7-7-7-7-7-7-7-7-7-7-7-7-7--6-5-3-2-|


This is the end!!!!It is my second tab and it took me longer
than my first one.I am not sure about the 1st solo....Although,
I am sure for all the other parts.If there is any mistake,
let me know it.So make comments and rate this tab.Have fun,
try to play this song and enjoy it!!!!!!!!!!!!!

Song:One Of A Kind

Artist:HammerFall

Album:No Sacrifice,No Victory

Tabbed by:Elias Stasi..........
Tap to rate this tab
 
# A B C D E F G H I J K L M N O P Q R S T U V W X Y Z