Guitaretab - guitar tabs
Song name
# A B C D E F G H I J K L M N O P Q R S T U V W X Y Z

Hammerfall - Renegade tab

Hammerfall - Renegade - Renegade

KEY----------------------
                        |
p = pull off            |
h = hammer on           |   
()= tied note           |
^ = bend                |
<> = bend and release   |
. = palm mute           |


INTRO RIFF

  A5                                     F5                G5      E5 C5
D#---------------------|----------------|-----------------|---------------|
A#---------------------|----------------|-----------------|---------------|
F#---------------------|----------------|-----------------|---------------|
C#----7-----7-----9p10-|-7----7----9p10-|-7----7-----9p10-|12--10--9--6---|
G#------0-0---0-0------|--0-0---0-0-----|---8-8---8-8-----|--10--10-10-7--|
D#---------------------|----------------|-----------------|---------------|
        . .   . .         . .   . .         . .   . .         .   .  . .

   A5                                   F5               G5       E5  C5
D#-------------------|----------------|-----------------|----------------- R
A#-------------------|----------------|-----------------|----------------- E
F#-------------------|----------------|-----------------|----------------- P
C#--7-----7-----9p10-|-7----7----9p10-|-7----7-----9p10-|-12--10--14--10-- E
G#----0-0---0-0------|--0-0---0-0-----|---8-8---8-8-----|---10--10--10--10 A
D#-------------------|----------------|-----------------|----------------- T
      . .   . .         . .   . .         . .   . .          .   .   .   .

VERSE 1 
D#-----------------------|------------------------------|----------------
A#-----------------------|------------------------------|----------------
F#----2-~~~--4-----2-~---|---5-~-4-~-2-~~~-4-----2-~----|---5-~-4-~-2-~~~
C#----2-~~~--2--5--2-~---|---5-~-4-~-2-~~~-2--5--2-~----|---5-~-4-~-2-~~~
G#----0-~~~-----3--0-~---|---3-~-2-~-0-~~~----3--0-~----|---3-~-2-~-0-~~~
D#-----------------------|------------------------------|----------------

D#--------|-----------------|-------------|-----------------|------------|
A#--------|-----------------|-------------|-----------------|------------|
F#--------|-----------------|-------------|-----------------|------------|
C#---5-~~~|-3---------------|--------3--5-|-7---------------|------------|
G#---5-~~~|-3-3-3-3-3-3-3-3-|-3-3-3-------|-7-7-7-7-7-7-7-7-|-7-7-7-7--8-|
D#---3-~~~|-1-1-1-1-1-1-1-1-|-1-1-1-------|-5-5-5-5-5-5-5-5-|-5-5-5------|
              . . . . . . .   . . .           . . . . . . .   . . .
D#-------------------|------------|-----------------|-----------------|
A#-------------------|------------|-----------------|-----------------|
F#-------------------|------------|-----------------|-----------------|
C#---5---------------|----------3-|-----------------|-----------------|
G#---5-5-5-5-5-5-5-5-|-5-5-5-5----|-7-7-7-7-5-5-5-5-|-3-3-3-3-2-2-2-2-|
D#---3-3-3-3-3-3-3-3-|-3-3-3------|-5-5-5-5-3-3-3-3-|-1-1-1-1-0-0-0-0-|
       . . . . . . .   . . .        . . . . . . . .   . . . . . . . .
D#-------------------|-------------|-----------------|------------|
A#-------------------|-------------|-----------------|------------|
F#-------------------|-------------|-----------------|----------5-|
C#---3---------------|--------3--5-|-7---------------|-------7----|
G#---3-3-3-3-3-3-3-3-|-3-3-3-------|-7-7-7-7-7-7-7-7-|-7-7-7------|
D#---1-1-1-1-1-1-1-1-|-1-1-1-------|-5-5-5-5-5-5-5-5-|-5-5-5------|
       . . . . . . .   . . .           . . . . . . .   . . .
D#-------------------|------------|-----------------|------------|
A#-------------------|------------|-----------------|------------|
F#-------------------|------------|-----------------|------------|
C#---5-5-5-5-5-5-5-5-|-------5--3-|-2-2-2-2-2-2-2-2-|-2-~~~------|
G#---5-5-5-5-5-5-5-5-|-5-5-5------|-2-2-2-2-2-2-2-2-|-2-~~~------|
D#---3-3-3-3-3-3-3-3-|-3-3-3------|-0-0-0-0-0-0-0-0-|-0-~~~------|
       . . . . . . .   . . .          . . . . . . .   

REFRAIN
D#-----------|-------------------|---------|-------------------|
A#-----------|-------------------|---------|-------------------|
F#-----------|-------------------|---------|-------------------|
C#---7--7--7-|-(7)-7-7-7-7-7-7-7-|-3--3--3-|-(3)-3-3-3-3-3-3-3-|
G#---7--7--7-|-(7)-7-7-7-7-7-7-7-|-3--3--3-|-(3)-3-3-3-3-3-3-3-|
D#---5--5--5-|-(5)-5-5-5-5-5-5-5-|-1--1--1-|-(1)-1-1-1-1-1-1-1-|
    Re ne gade     . . . . . . .   Re ne gade    . . . . . . .    

D#-----------|-----------------|-----------------|-----------| R
A#-----------|-----------------|-----------------|-----------| E
F#-----------|-----------------|-----------------|-----------| P
C#---5--7--5-|-5-5-5-5-5-5-5-5-|-----------------|-3-~-2-~---| E
G#---3--3--3-|-3-3-3-3-3-3-3-3-|-5-5-5-5-5-5-5-5-|-3-~-2-~---| A
D#-----------|-----------------|-3-3-3-3-3-3-3-3-|-1-~-0-~---| T
               . . . . . . . .     . . . . . . . 

VERSE 2 - Same as Verse 1

Refrain - Same

[ Tab from: http://www.guitaretab.com/h/hammerfall/27556.html ]
BRIDGE 
D#---------|------------------|-------|-----------------|--------|
A#---------|------------------|-------|-----------------|--------|
F#---7-~~~-|-10-----9-----7---|-9-~~~-|-9-----7-----5---|-7-~~~--|
C#---7-~~~-|----7-7---7-7---7-|-7-~~~-|---7-7---7-7---7-|-5-~~~--|
G#---5-~~~-|------------------|-------|-----------------|--------|
D#---------|------------------|-------|-----------------|--------|
                . .   . .   .             . .   . .   .

D#-------------------|-------|--------|-------|------------------|-------|
A#-------------------|-------|--------|-------|------------------|-------|
F#---7-----5-----4---|-------|--5-~~~-|-7-~~~-|-10-----9-----7---|-9-~~~-|
C#-----5-5---5-5---5-|-7-~~~-|--5-~~~-|-7-~~~-|----7-7---7-7--7--|-7-~~~-|
G#-------------------|-7-~~~-|--------|-5-~~~-|------------------|-------|
D#-------------------|-------|--------|-------|------------------|-------|
       . .   . .   .                               . .   . .  .

D#-------------------|-------|------------------|----------|---------|
A#-------------------|-------|------------------|----------|---------|
F#---9-----7-----5---|-4-~~~-|-8-----9-----11---|-9-~~~----|-(9)-~~~-|
C#-----7-7---7-7---7-|-4-~~~-|---9-9---9-9----9-|-9-~~~----|-(9)-~~~-|
G#-------------------|-------|------------------|-7-~~~----|-(7)-~~~-|
D#-------------------|-------|------------------|----------|---------|
       . .   . .   .             . .   . .    .

D#-------------------|-------------------|-----------------|---------------|
A#-------------------|-------------------|-----------------|---------------|
F#-------------------|-------------------|-----------------|-----------2-~-|
C#-------------------|-------------------|-----------------|-----------2-~-|
G#---------5---2---4-|-(4)---------------|-------5---2---4-|-(4)-------0-~-|
D#---2-2-2---2---2---|-----2-2-2-4-5-4-0-|-2-2-2---2---2---|-----2-2-2-----|
     . . .   .   .         . . . . . . .   . . .   .   .         . . .

D#-------------------|-------------------|------------|-----------|
A#-------------------|-------------------|------------|-----------|
F#-------------------|-------------------|-7-~~~------|-9-~~~-----|
C#-------------------|-------------------|-7-~~~------|-9-~~~-----|
G#---------5---2---4-|-(4)---------------|-5-~~~------|-7-~~~-----|
D#---2-2-2---2---2---|-----2-2-2-4-5-4-0-|------------|-----------|
     . . .   .   .         . . . . . . .

D#-------------------|-------------------|-----------------|---------------|
A#-------------------|-------------------|-----------------|---------------|
F#-------------------|-------------------|-----------------|-----------2-~-|
C#-------------------|-------------------|-----------------|-----------2-~-|
G#---------5---2---4-|-(4)---------------|-------5---2---4-|-(4)-------0-~-|
D#---2-2-2---2---2---|-----2-2-2-4-5-4-0-|-2-2-2---2---2---|-----2-2-2-----|
     . . .   .   .         . . . . . . .   . . .   .   .         . . .

D#-------------------|-------------------|----------|-----------|
A#-------------------|-------------------|----------|-----------|
F#-------------------|-------------------|----------|-----------|
C#-------------------|-------------------|-4-~~~----|-2-~~~-----|
G#---------5---2---4-|-(4)---------------|-4-~~~----|-2-~~~-----|
D#---2-2-2---2---2---|-----2-2-2-4-5-4-0-|-2-~~~----|-0-~~~-----|
     . . .   .   .         . . . . . . .

SOLO   
  D5                         A5                           G5
D#---------------|-----------|---------------|------------|--------------|
A#---15-~~-15-17-|-17<>-~~15-|-17-~----------|------12-13-|-12-~~-12-13--|
F#---------------|-----------|------16-17-16-|-14-~~------|--------------|
C#---------------|-----------|---------------|------------|--------------|
G#---------------|-----------|---------------|------------|--------------|
D#---------------|-----------|---------------|------------|--------------|
                  Half
                 
                A5              C5
D#--------------|------12-13-15-|-13-12----13-12-------12----------------|
A#---13<>-~~ 12-|---------------|-------15-------15-13----15-13-12-------|
F#--------------|-14 ~~---------|----------------------------------14----|
C#--------------|---------------|----------------------------------------|
G#--------------|---------------|----------------------------------------|
D#--------------|---------------|----------------------------------------|
    Whole              Triplets for this whole measure

   D5                          A5                         B5
D#---------------|-----------|-20-~~-22-22-22-|-22<>-~~~-|-19-~~-19-19-19--|
A#---15-~~-15-17-|-17<>~~-15-|----------------|----------|-----------------|
F#---------------|-----------|----------------|----------|-----------------|
C#---------------|-----------|----------------|----------|-----------------|
G#---------------|-----------|----------------|----------|-----------------|
D#---------------|-----------|----------------|----------|-----------------|
                  Half               Triplets  Whole             Triplets
             E5
D#---19-~~~-|-22^-~~~-|-(22^)-~~~-|
A#----------|---------|-----------|
F#----------|---------|-----------|
C#----------|---------|-----------|
G#----------|---------|-----------|
D#----------|---------|-----------|
             Whole


After playing the solo play the

- Intro
- Refrain (x2)
- Intro 

and then you're done.


Great song great band - Buy the Renegade CD if you already haven't


-awobijo



   
Related for Renegade tab
×
Renegade